  0
SECTION
  2
HEADER
  9
$ACADVER
  1
AC1009
  9
$INSBASE
 10
0.0
 20
0.0
 30
0.0
  9
$EXTMIN
 10
29.989015033921529
 20
7.2674579490762881
 30
-0.0015258207003583
  9
$EXTMAX
 10
570.01739634668616
 20
810.02472112423811
 30
0.0000000349246037
  9
$LIMMIN
 10
0.0
 20
0.0
  9
$LIMMAX
 10
0.0
 20
0.0
  9
$ORTHOMODE
 70
     0
  9
$REGENMODE
 70
     1
  9
$FILLMODE
 70
     1
  9
$QTEXTMODE
 70
     0
  9
$MIRRTEXT
 70
     1
  9
$DRAGMODE
 70
     2
  9
$LTSCALE
 40
15.24
  9
$OSMODE
 70
   231
  9
$ATTMODE
 70
     1
  9
$TEXTSIZE
 40
0.0
  9
$TRACEWID
 40
1.0
  9
$TEXTSTYLE
  7
STANDARD
  9
$CLAYER
  8
DATA
  9
$CELTYPE
  6
BYLAYER
  9
$CECOLOR
 62
   256
  9
$DIMSCALE
 40
1.0
  9
$DIMASZ
 40
0.18
  9
$DIMEXO
 40
0.0625
  9
$DIMDLI
 40
0.38
  9
$DIMRND
 40
0.0
  9
$DIMDLE
 40
0.0
  9
$DIMEXE
 40
0.18
  9
$DIMTP
 40
0.0
  9
$DIMTM
 40
0.0
  9
$DIMTXT
 40
0.18
  9
$DIMCEN
 40
0.09
  9
$DIMTSZ
 40
0.0
  9
$DIMTOL
 70
     0
  9
$DIMLIM
 70
     0
  9
$DIMTIH
 70
     1
  9
$DIMTOH
 70
     1
  9
$DIMSE1
 70
     0
  9
$DIMSE2
 70
     0
  9
$DIMTAD
 70
     0
  9
$DIMZIN
 70
     0
  9
$DIMBLK
  1

  9
$DIMASO
 70
     1
  9
$DIMSHO
 70
     1
  9
$DIMPOST
  1

  9
$DIMAPOST
  1

  9
$DIMALT
 70
     0
  9
$DIMALTD
 70
     2
  9
$DIMALTF
 40
25.399999999999999
  9
$DIMLFAC
 40
1.0
  9
$DIMTOFL
 70
     0
  9
$DIMTVP
 40
0.0
  9
$DIMTIX
 70
     0
  9
$DIMSOXD
 70
     0
  9
$DIMSAH
 70
     0
  9
$DIMBLK1
  1

  9
$DIMBLK2
  1

  9
$DIMSTYLE
  2
STANDARD
  9
$DIMCLRD
 70
     0
  9
$DIMCLRE
 70
     0
  9
$DIMCLRT
 70
     0
  9
$DIMTFAC
 40
1.0
  9
$DIMGAP
 40
0.09
  9
$LUNITS
 70
     2
  9
$LUPREC
 70
     4
  9
$SKETCHINC
 40
0.1
  9
$FILLETRAD
 40
0.0
  9
$AUNITS
 70
     0
  9
$AUPREC
 70
     0
  9
$MENU
  1
acad
  9
$ELEVATION
 40
0.0
  9
$PELEVATION
 40
0.0
  9
$THICKNESS
 40
0.0
  9
$LIMCHECK
 70
     0
  9
$BLIPMODE
 70
     0
  9
$CHAMFERA
 40
0.0
  9
$CHAMFERB
 40
0.0
  9
$SKPOLY
 70
     0
  9
$TDCREATE
 40
2455202.7018287042
  9
$TDUPDATE
 40
2455202.7035288541
  9
$TDINDWG
 40
0.0002481134
  9
$TDUSRTIMER
 40
0.0002479282
  9
$USRTIMER
 70
     1
  9
$ANGBASE
 50
0.0
  9
$ANGDIR
 70
     0
  9
$PDMODE
 70
     1
  9
$PDSIZE
 40
-2.0
  9
$PLINEWID
 40
0.0
  9
$COORDS
 70
     0
  9
$SPLFRAME
 70
     0
  9
$SPLINETYPE
 70
     6
  9
$SPLINESEGS
 70
     8
  9
$ATTDIA
 70
     0
  9
$ATTREQ
 70
     1
  9
$HANDLING
 70
     1
  9
$HANDSEED
  5
57A
  9
$SURFTAB1
 70
     6
  9
$SURFTAB2
 70
     6
  9
$SURFTYPE
 70
     6
  9
$SURFU
 70
     6
  9
$SURFV
 70
     6
  9
$UCSNAME
  2

  9
$UCSORG
 10
0.0
 20
0.0
 30
0.0
  9
$UCSXDIR
 10
1.0
 20
0.0
 30
0.0
  9
$UCSYDIR
 10
0.0
 20
1.0
 30
0.0
  9
$PUCSNAME
  2

  9
$PUCSORG
 10
0.0
 20
0.0
 30
0.0
  9
$PUCSXDIR
 10
1.0
 20
0.0
 30
0.0
  9
$PUCSYDIR
 10
0.0
 20
1.0
 30
0.0
  9
$USERI1
 70
     0
  9
$USERI2
 70
     0
  9
$USERI3
 70
     0
  9
$USERI4
 70
     0
  9
$USERI5
 70
     0
  9
$USERR1
 40
0.0
  9
$USERR2
 40
0.0
  9
$USERR3
 40
0.0
  9
$USERR4
 40
0.0
  9
$USERR5
 40
0.0
  9
$WORLDVIEW
 70
     1
  9
$SHADEDGE
 70
     3
  9
$SHADEDIF
 70
    70
  9
$TILEMODE
 70
     1
  9
$MAXACTVP
 70
    64
  9
$PLIMCHECK
 70
     0
  9
$PEXTMIN
 10
1.0000000000000000E+020
 20
1.0000000000000000E+020
 30
1.0000000000000000E+020
  9
$PEXTMAX
 10
-1.0000000000000000E+020
 20
-1.0000000000000000E+020
 30
-1.0000000000000000E+020
  9
$PLIMMIN
 10
0.0
 20
0.0
  9
$PLIMMAX
 10
12.0
 20
9.0
  9
$UNITMODE
 70
     0
  9
$VISRETAIN
 70
     0
  9
$PLINEGEN
 70
     1
  9
$PSLTSCALE
 70
     0
  0
ENDSEC
  0
SECTION
  2
TABLES
  0
TABLE
  2
VPORT
 70
     1
  0
VPORT
  2
*ACTIVE
 70
     0
 10
0.0
 20
0.0
 11
1.0
 21
1.0
 12
300.00320569030379
 22
408.64608953665709
 13
0.0
 23
0.0
 14
1.0
 24
1.0
 15
0.0
 25
0.0
 16
0.0
 26
0.0
 36
1.0
 17
0.0
 27
0.0
 37
0.0
 40
808.67439287915568
 41
1.964329643296433
 42
50.0
 43
0.0
 44
0.0
 50
0.0
 51
0.0
 71
     0
 72
  2000
 73
     1
 74
     1
 75
     0
 76
     0
 77
     0
 78
     0
  0
ENDTAB
  0
TABLE
  2
LTYPE
 70
    11
  0
LTYPE
  2
CONTINUOUS
 70
     0
  3
Solid line
 72
    65
 73
     0
 40
0.0
  0
ENDTAB
  0
TABLE
  2
LAYER
 70
     5
  0
LAYER
  2
0
 70
     0
 62
     7
  6
CONTINUOUS
  0
LAYER
  2
DATA
 70
     0
 62
     7
  6
CONTINUOUS
  0
LAYER
  2
HIBINO-BASE
 70
     0
 62
     7
  6
CONTINUOUS
  0
LAYER
  2
SPEC
 70
     0
 62
     7
  6
CONTINUOUS
  0
LAYER
  2
DIMNSIONS
 70
     0
 62
     7
  6
CONTINUOUS
  0
ENDTAB
  0
TABLE
  2
STYLE
 70
     3
  0
STYLE
  2
STANDARD
 70
     0
 40
0.0
 41
1.0
 50
0.0
 71
     0
 42
0.0
  3
txt
  4
BIGFONT.SHX
  0
ENDTAB
  0
TABLE
  2
VIEW
 70
     0
  0
ENDTAB
  0
TABLE
  2
UCS
 70
     0
  0
ENDTAB
  0
TABLE
  2
APPID
 70
     3
  0
APPID
  2
ACAD
 70
     0
  0
APPID
  2
ACADANNOTATIVE
 70
     0
  0
APPID
  2
ACAD_MLEADERVER
 70
     0
  0
ENDTAB
  0
TABLE
  2
DIMSTYLE
 70
     2
  0
DIMSTYLE
  2
STANDARD
 70
     0
  3

  4

  5

  6

  7

 40
1.0
 41
0.18
 42
0.0625
 43
0.38
 44
0.18
 45
0.0
 46
0.0
 47
0.0
 48
0.0
140
0.18
141
0.09
142
0.0
143
25.399999999999999
144
1.0
145
0.0
146
1.0
147
0.09
 71
     0
 72
     0
 73
     1
 74
     1
 75
     0
 76
     0
 77
     0
 78
     0
170
     0
171
     2
172
     0
173
     0
174
     0
175
     0
176
     0
177
     0
178
     0
  0
ENDTAB
  0
ENDSEC
  0
SECTION
  2
BLOCKS
  0
BLOCK
  8
0
  2
$MODEL_SPACE
 70
     0
 10
0.0
 20
0.0
 30
0.0
  3
$MODEL_SPACE
  1

  0
ENDBLK
  5
400
  8
0
  0
BLOCK
 67
     1
  8
0
  2
$PAPER_SPACE
 70
     0
 10
0.0
 20
0.0
 30
0.0
  3
$PAPER_SPACE
  1

  0
ENDBLK
  5
3FC
 67
     1
  8
0
  0
ENDSEC
  0
SECTION
  2
ENTITIES
  0
LINE
  5
2C
  8
HIBINO-BASE
  6
CONTINUOUS
 62
     7
 10
30.0
 20
810.0
 30
0.0
 11
569.99999999999989
 21
810.0
 31
0.0
  0
LINE
  5
2D
  8
HIBINO-BASE
  6
CONTINUOUS
 62
     7
 10
569.99999999999989
 20
30.0
 30
0.0
 11
30.0
 21
30.0
 31
0.0
  0
LINE
  5
2E
  8
HIBINO-BASE
  6
CONTINUOUS
 62
     7
 10
30.0
 20
30.0
 30
0.0
 11
30.0
 21
810.0
 31
0.0
  0
LINE
  5
2F
  8
HIBINO-BASE
  6
CONTINUOUS
 62
     7
 10
569.99999999999989
 20
810.0
 30
0.0
 11
569.99999999999989
 21
30.0
 31
0.0
  0
LINE
  5
30
  8
HIBINO-BASE
  6
CONTINUOUS
 62
     7
 10
300.0
 20
97.500000000000057
 30
0.0
 11
569.99999999999989
 21
97.500000000000057
 31
0.0
  0
LINE
  5
31
  8
HIBINO-BASE
  6
CONTINUOUS
 62
     7
 10
300.0
 20
30.0
 30
0.0
 11
300.0
 21
97.500000000000057
 31
0.0
  0
TEXT
  5
32
  8
HIBINO-BASE
 62
     7
 10
302.69999999999987
 20
89.973919999999993
 30
0.0
 40
4.8865234374999993
  1
NOTE
 41
0.7
 11
302.69999999999987
 21
94.860443437499995
 31
0.0
 73
     3
  0
LINE
  5
33
  8
HIBINO-BASE
  6
CONTINUOUS
 62
     7
 10
405.0
 20
30.0
 30
0.0
 11
405.0
 21
97.500000000000057
 31
0.0
  0
TEXT
  5
34
  8
HIBINO-BASE
 62
     7
 10
407.69999999999987
 20
89.973919999999993
 30
0.0
 40
4.8865234374999993
  1
TITLE
 41
0.7
 11
407.69999999999987
 21
94.860443437499995
 31
0.0
 73
     3
  0
LINE
  5
35
  8
HIBINO-BASE
  6
CONTINUOUS
 62
     7
 10
300.0
 20
60.000000000000071
 30
0.0
 11
569.99999999999989
 21
60.000000000000071
 31
0.0
  0
TEXT
  5
36
  8
HIBINO-BASE
 62
     7
 10
445.19999999999987
 20
52.64287999999997
 30
0.0
 40
4.8865234374999993
  1
DRAWN
 41
0.7
 11
445.19999999999987
 21
57.529403437499973
 31
0.0
 73
     3
  0
TEXT
  5
37
  8
HIBINO-BASE
 62
     7
 10
370.19999999999987
 20
52.64287999999997
 30
0.0
 40
4.8865234374999993
  1
DATE
 41
0.7
 11
370.19999999999987
 21
57.529403437499973
 31
0.0
 73
     3
  0
TEXT
  5
38
  8
HIBINO-BASE
 62
     7
 10
340.19999999999987
 20
52.64287999999997
 30
0.0
 40
4.8865234374999993
  1
SCALE
 41
0.7
 11
340.19999999999987
 21
57.529403437499973
 31
0.0
 73
     3
  0
TEXT
  5
39
  8
HIBINO-BASE
 62
     7
 10
407.69999999999987
 20
52.64287999999997
 30
0.0
 40
4.8865234374999993
  1
DESIGN
 41
0.7
 11
407.69999999999987
 21
57.529403437499973
 31
0.0
 73
     3
  0
TEXT
  5
3A
  8
HIBINO-BASE
 62
     7
 10
520.19999999999993
 20
52.64287999999997
 30
0.0
 40
4.8865234374999993
  1
DRAWING NO.
 41
0.7
 11
520.19999999999993
 21
57.529403437499973
 31
0.0
 73
     3
  0
TEXT
  5
3B
  8
HIBINO-BASE
 62
     7
 10
482.69999999999987
 20
52.64287999999997
 30
0.0
 40
4.8865234374999993
  1
CHECK
 41
0.7
 11
482.69999999999987
 21
57.529403437499973
 31
0.0
 73
     3
  0
LINE
  5
3C
  8
HIBINO-BASE
  6
CONTINUOUS
 62
     7
 10
343.12499999999989
 20
33.75
 30
0.0
 11
354.37499999999989
 21
45.000000000000057
 31
0.0
  0
TEXT
  5
3D
  8
HIBINO-BASE
 62
     7
 10
341.25
 20
41.673170000000013
 30
0.0
 40
4.8865234374999993
  1
1
 41
0.7
 11
341.25
 21
46.559693437500009
 31
0.0
 73
     3
  0
LINE
  5
3E
  8
HIBINO-BASE
  6
CONTINUOUS
 62
     7
 10
337.5
 20
30.0
 30
0.0
 11
337.5
 21
60.000000000000071
 31
0.0
  0
LINE
  5
3F
  8
HIBINO-BASE
  6
CONTINUOUS
 62
     7
 10
367.5
 20
30.0
 30
0.0
 11
367.5
 21
60.000000000000071
 31
0.0
  0
LINE
  5
40
  8
HIBINO-BASE
  6
CONTINUOUS
 62
     7
 10
442.49999999999989
 20
60.000000000000071
 30
0.0
 11
442.49999999999989
 21
30.0
 31
0.0
  0
LINE
  5
41
  8
HIBINO-BASE
  6
CONTINUOUS
 62
     7
 10
517.49999999999989
 20
60.000000000000071
 30
0.0
 11
517.49999999999989
 21
30.0
 31
0.0
  0
LINE
  5
42
  8
HIBINO-BASE
  6
CONTINUOUS
 62
     7
 10
479.99999999999989
 20
30.0
 30
0.0
 11
479.99999999999989
 21
60.000000000000071
 31
0.0
  0
TEXT
  5
43
  8
HIBINO-BASE
 62
     7
 10
370.06961999999987
 20
38.590939999999982
 30
0.0
 40
4.8865234374999993
  1
'09.07.
 41
0.7
 11
370.06961999999987
 21
43.477463437499978
 31
0.0
 73
     3
  0
TEXT
  5
44
  8
HIBINO-BASE
 62
     7
 10
352.49999999999989
 20
36.048170000000013
 30
0.0
 40
4.8865234374999993
  1
3
 41
0.7
 11
352.49999999999989
 21
40.934693437500009
 31
0.0
 73
     3
  0
TEXT
  5
45
  8
HIBINO-BASE
 62
     7
 10
447.01743003310372
 20
38.590939999999982
 30
0.0
 40
4.8865234374999993
  1
T.Ootake
 41
0.7
 11
447.01743003310372
 21
43.477463437499978
 31
0.0
 73
     3
  0
TEXT
  5
46
  8
HIBINO-BASE
 62
     7
 10
311.64999999999998
 20
35.928000000000033
 30
0.0
 40
9.7730468749999986
  1
A4
 41
0.7
 11
311.64999999999998
 21
45.701046875000031
 31
0.0
 73
     3
  0
TEXT
  5
47
  8
HIBINO-BASE
 62
     7
 10
302.875
 20
52.141635000000051
 30
0.0
 40
4.8865234374999993
  1
PAPER SIZE
 41
0.7
 11
302.875
 21
57.028158437500053
 31
0.0
 73
     3
  0
TEXT
  5
48
  8
HIBINO-BASE
 62
     7
 10
38.742632240394357
 20
10.816519385235591
 30
0.0
 40
10.58746744791666
  1
Hibino-Intersound Corporation
 41
0.7
 11
38.742632240394357
 21
21.40398683315226
 31
0.0
 73
     3
  0
TEXT
  5
49
  8
HIBINO-BASE
 62
     7
 10
361.9378998119634
 20
11.74753638661347
 30
0.0
 40
10.58746744791666
  1
ヒビノインターサウンド株式会社
 41
0.7
 11
361.9378998119634
 21
22.335003834530141
 31
0.0
 73
     3
  0
LINE
  5
4A
  8
SPEC
  6
CONTINUOUS
 62
     7
 10
52.5
 20
780.0
 30
0.0
 11
495.0
 21
780.0
 31
0.0
  0
LINE
  5
4B
  8
SPEC
  6
CONTINUOUS
 62
     7
 10
52.5
 20
768.75
 30
0.0
 11
495.0
 21
768.75
 31
0.0
  0
LINE
  5
4C
  8
SPEC
  6
CONTINUOUS
 62
     7
 10
52.5
 20
723.74999999999989
 30
0.0
 11
495.0
 21
723.74999999999989
 31
0.0
  0
LINE
  5
4D
  8
SPEC
  6
CONTINUOUS
 62
     7
 10
52.5
 20
735.0
 30
0.0
 11
495.0
 21
735.0
 31
0.0
  0
LINE
  5
4E
  8
SPEC
  6
CONTINUOUS
 62
     7
 10
52.5
 20
746.25
 30
0.0
 11
495.0
 21
746.25
 31
0.0
  0
LINE
  5
4F
  8
SPEC
  6
CONTINUOUS
 62
     7
 10
52.5
 20
712.5
 30
0.0
 11
495.0
 21
712.5
 31
0.0
  0
LINE
  5
50
  8
SPEC
  6
CONTINUOUS
 62
     7
 10
52.5
 20
690.0
 30
0.0
 11
495.0
 21
690.0
 31
0.0
  0
LINE
  5
51
  8
SPEC
  6
CONTINUOUS
 62
     7
 10
52.5
 20
701.25
 30
0.0
 11
495.0
 21
701.25
 31
0.0
  0
LINE
  5
52
  8
SPEC
  6
CONTINUOUS
 62
     7
 10
52.5
 20
757.5
 30
0.0
 11
495.0
 21
757.5
 31
0.0
  0
LINE
  5
53
  8
SPEC
  6
CONTINUOUS
 62
     7
 10
52.5
 20
780.0
 30
0.0
 11
52.5
 21
622.5
 31
0.0
  0
TEXT
  5
54
  8
SPEC
 62
     7
 10
56.25
 20
784.17980999999986
 30
0.0
 40
7.3297851562499989
  1
仕様
 41
0.7
 11
56.25
 21
791.50959515624982
 31
0.0
 73
     3
  0
LINE
  5
55
  8
SPEC
  6
CONTINUOUS
 62
     7
 10
150.0
 20
780.0
 30
0.0
 11
150.0
 21
622.5
 31
0.0
  0
LINE
  5
56
  8
SPEC
  6
CONTINUOUS
 62
     7
 10
495.0
 20
780.0
 30
0.0
 11
495.0
 21
622.5
 31
0.0
  0
TEXT
  5
57
  8
SPEC
 62
     7
 10
55.199705547240171
 20
771.53806747243561
 30
0.0
 40
5.700933749999999
  1
形式
 41
0.7
 11
55.199705547240171
 21
777.2390012224356
 31
0.0
 73
     3
  0
TEXT
  5
58
  8
SPEC
 62
     7
 10
55.418869005758069
 20
704.0303759331365
 30
0.0
 40
5.700933749999999
  1
SDI/HD-SDI端子
 41
0.7
 11
55.418869005758069
 21
709.73130968313637
 31
0.0
 73
     3
  0
TEXT
  5
59
  8
SPEC
 62
     7
 10
55.066355176001757
 20
637.01610334994018
 30
0.0
 40
5.700933749999999
  1
寸法
 41
0.7
 11
55.066355176001757
 21
642.71703709994028
 31
0.0
 73
     3
  0
TEXT
  5
5A
  8
SPEC
 62
     7
 10
55.191196108335639
 20
625.72112405287692
 30
0.0
 40
5.700933749999999
  1
重量
 41
0.7
 11
55.191196108335639
 21
631.42205780287691
 31
0.0
 73
     3
  0
TEXT
  5
5B
  8
SPEC
 62
     7
 10
55.125119325690719
 20
659.54793678076351
 30
0.0
 40
5.700933749999999
  1
電源
 41
0.7
 11
55.125119325690719
 21
665.2488705307635
 31
0.0
 73
     3
  0
TEXT
  5
5C
  8
SPEC
 62
     7
 10
55.282337243224831
 20
760.37627692321041
 30
0.0
 40
5.700933749999999
  1
入力ビデオ帯域
 41
0.7
 11
55.282337243224831
 21
766.07721067321029
 31
0.0
 73
     3
  0
TEXT
  5
5D
  8
SPEC
 62
     7
 10
54.902259779487039
 20
749.11496973032911
 30
0.0
 40
5.700933749999999
  1
出力ビデオ帯域
 41
0.7
 11
54.902259779487039
 21
754.81590348032898
 31
0.0
 73
     3
  0
TEXT
  5
5E
  8
SPEC
 62
     7
 10
152.86373758798831
 20
704.2591165660009
 30
0.0
 40
5.700933749999999
  1
BNCメス
 41
0.7
 11
152.86373758798831
 21
709.960050316001
 31
0.0
 73
     3
  0
TEXT
  5
5F
  8
SPEC
 62
     7
 10
152.8844131357107
 20
659.08238392885494
 30
0.0
 40
5.700933749999999
  1
5V DC
 41
0.7
 11
152.8844131357107
 21
664.78331767885493
 31
0.0
 73
     3
  0
TEXT
  5
60
  8
SPEC
 62
     7
 10
152.47394660823289
 20
749.34719088613554
 30
0.0
 40
5.700933749999999
  1
165MHz(シングルリンクDVI-D)
 41
0.7
 11
152.47394660823289
 21
755.04812463613553
 31
0.0
 73
     3
  0
TEXT
  5
61
  8
SPEC
 62
     7
 10
152.47745197282771
 20
760.49567496370275
 30
0.0
 40
5.700933749999999
  1
1.485Gbps\U+00D72
 41
0.7
 11
152.47745197282771
 21
766.19660871370274
 31
0.0
 73
     3
  0
TEXT
  5
62
  8
SPEC
 62
     7
 10
55.376257509286788
 20
737.93610703763875
 30
0.0
 40
5.700933749999999
  1
最大入力解像度
 41
0.7
 11
55.376257509286788
 21
743.63704078763874
 31
0.0
 73
     3
  0
TEXT
  5
63
  8
SPEC
 62
     7
 10
152.46280230576019
 20
738.06906750439884
 30
0.0
 40
5.700933749999999
  1
1920\U+00D71200/60Hz
 41
0.7
 11
152.46280230576019
 21
743.77000125439884
 31
0.0
 73
     3
  0
TEXT
  5
64
  8
SPEC
 62
     7
 10
152.86656279179221
 20
636.53778804884473
 30
0.0
 40
5.7009440104166647
  1
214(W)\U+00D742(H)\U+00D7173(D)mm(突起部含まず)
 41
0.7
 11
152.86656279179221
 21
642.23873205926145
 31
0.0
 73
     3
  0
TEXT
  5
65
  8
SPEC
 62
     7
 10
152.76014172617241
 20
625.43518800371601
 30
0.0
 40
5.7009440104166647
  1
約650g
 41
0.7
 11
152.76014172617241
 21
631.13613201413273
 31
0.0
 73
     3
  0
TEXT
  5
66
  8
SPEC
 62
     7
 10
55.352240740948822
 20
715.44544896841296
 30
0.0
 40
5.700933749999999
  1
DVIコネクタ ー
 41
0.7
 11
55.352240740948822
 21
721.14638271841295
 31
0.0
 73
     3
  0
TEXT
  5
67
  8
SPEC
 62
     7
 10
152.8468226823789
 20
715.70501527154852
 30
0.0
 40
5.700933749999999
  1
DVI-I 29pinメス(digital only)　
 41
0.7
 11
152.8468226823789
 21
721.40594902154839
 31
0.0
 73
     3
  0
LINE
  5
68
  8
SPEC
  6
CONTINUOUS
 62
     7
 10
52.5
 20
678.75
 30
0.0
 11
495.0
 21
678.75
 31
0.0
  0
TEXT
  5
69
  8
SPEC
 62
     7
 10
152.8504562185141
 20
771.36554882659459
 30
0.0
 40
5.7009440104166647
  1
HDSDI to DVI変換機 
 41
0.7
 11
152.8504562185141
 21
777.06649283701131
 31
0.0
 73
     3
  0
LINE
  5
6A
  8
SPEC
  6
CONTINUOUS
 62
     7
 10
52.5
 20
667.49999999999989
 30
0.0
 11
495.0
 21
667.49999999999989
 31
0.0
  0
LINE
  5
6B
  8
SPEC
  6
CONTINUOUS
 62
     7
 10
52.5
 20
656.25
 30
0.0
 11
495.0
 21
656.25
 31
0.0
  0
LINE
  5
6C
  8
SPEC
  6
CONTINUOUS
 62
     7
 10
52.5
 20
645.0
 30
0.0
 11
495.0
 21
645.0
 31
0.0
  0
LINE
  5
6D
  8
SPEC
  6
CONTINUOUS
 62
     7
 10
52.5
 20
633.75
 30
0.0
 11
495.0
 21
633.75
 31
0.0
  0
TEXT
  5
6E
  8
SPEC
 62
     7
 10
55.07315517113841
 20
692.86185665211269
 30
0.0
 40
5.700933749999999
  1
データポート
 41
0.7
 11
55.07315517113841
 21
698.56279040211268
 31
0.0
 73
     3
  0
TEXT
  5
6F
  8
SPEC
 62
     7
 10
152.85805550323261
 20
692.97408159589986
 30
0.0
 40
5.700933749999999
  1
DB-9,Sereal RS-232
 41
0.7
 11
152.85805550323261
 21
698.67501534589985
 31
0.0
 73
     3
  0
TEXT
  5
70
  8
SPEC
 62
     7
 10
55.262020557843272
 20
681.99039114576237
 30
0.0
 40
5.700933749999999
  1
オーディオ出力
 41
0.7
 11
55.262020557843272
 21
687.69132489576248
 31
0.0
 73
     3
  0
TEXT
  5
71
  8
SPEC
 62
     7
 10
152.45496642038771
 20
681.79473373379267
 30
0.0
 40
5.700933749999999
  1
アナログL+R RCA
 41
0.7
 11
152.45496642038771
 21
687.49566748379266
 31
0.0
 73
     3
  0
TEXT
  5
72
  8
SPEC
 62
     7
 10
54.656348854440921
 20
670.77512754938573
 30
0.0
 40
5.700933749999999
  1
ラックマウントサイズ
 41
0.7
 11
54.656348854440921
 21
676.47606129938572
 31
0.0
 73
     3
  0
TEXT
  5
73
  8
SPEC
 62
     7
 10
152.47977675052221
 20
670.38582859054156
 30
0.0
 40
5.700933749999999
  1
1U(別売ラックマウントキット使用時)
 41
0.7
 11
152.47977675052221
 21
676.08676234054155
 31
0.0
 73
     3
  0
TEXT
  5
74
  8
SPEC
 62
     7
 10
55.213568679598161
 20
648.08765047685517
 30
0.0
 40
5.700933749999999
  1
消費電力
 41
0.7
 11
55.213568679598161
 21
653.78858422685516
 31
0.0
 73
     3
  0
TEXT
  5
75
  8
SPEC
 62
     7
 10
152.86200149825709
 20
647.83497784037127
 30
0.0
 40
5.700933749999999
  1
20W(最大)
 41
0.7
 11
152.86200149825709
 21
653.53591159037126
 31
0.0
 73
     3
  0
TEXT
  5
76
  8
SPEC
 62
     7
 10
55.368095049360527
 20
726.68610703763875
 30
0.0
 40
5.700933749999999
  1
最大出力解像度
 41
0.7
 11
55.368095049360527
 21
732.38704078763874
 31
0.0
 73
     3
  0
TEXT
  5
77
  8
SPEC
 62
     7
 10
152.47599001645651
 20
726.81906750439884
 30
0.0
 40
5.700933749999999
  1
1080p/デュアルリンクHD-DSI
 41
0.7
 11
152.47599001645651
 21
732.52000125439884
 31
0.0
 73
     3
  0
LINE
  5
78
  8
SPEC
  6
CONTINUOUS
 62
     7
 10
52.5
 20
622.5
 30
0.0
 11
495.0
 21
622.5
 31
0.0
  0
TEXT
  5
79
  8
DIMNSIONS
 62
     7
 10
240.0
 20
66.808470000000028
 30
0.0
 40
7.3297851562499989
  1
(単位：mm)
 41
0.7
 11
240.0
 21
74.138255156250025
 31
0.0
 73
     3
  0
LINE
  5
7A
  8
DIMNSIONS
  6
CONTINUOUS
 62
     7
 10
94.0
 20
181.25
 30
0.0
 11
69.0
 21
181.25
 31
0.0
  0
LINE
  5
7B
  8
DIMNSIONS
  6
CONTINUOUS
 62
     7
 10
94.0
 20
223.25
 30
0.0
 11
69.0
 21
223.25
 31
0.0
  0
LINE
  5
7C
  8
DIMNSIONS
  6
CONTINUOUS
 62
     7
 10
75.0
 20
181.25
 30
0.0
 11
75.0
 21
223.25
 31
0.0
  0
LINE
  5
7D
  8
DIMNSIONS
  6
CONTINUOUS
 62
     7
 10
75.0
 20
181.25
 30
0.0
 11
72.989880614549264
 21
188.75186767578131
 31
0.0
  0
LINE
  5
7E
  8
DIMNSIONS
  6
CONTINUOUS
 62
     7
 10
75.0
 20
181.25
 30
0.0
 11
77.010119385450736
 21
188.75186767578131
 31
0.0
  0
LINE
  5
7F
  8
DIMNSIONS
  6
CONTINUOUS
 62
     7
 10
75.0
 20
223.25
 30
0.0
 11
77.010119385450736
 21
215.74813232421869
 31
0.0
  0
LINE
  5
80
  8
DIMNSIONS
  6
CONTINUOUS
 62
     7
 10
75.0
 20
223.25
 30
0.0
 11
72.989880614549264
 21
215.74813232421869
 31
0.0
  0
TEXT
  5
81
  8
DIMNSIONS
 62
     7
 10
72.018333333333359
 20
196.95833333333329
 30
0.0
 40
8.1442057291666661
  1
42
 50
90.0
 41
0.7
 11
63.874127604166688
 21
196.95833333333329
 31
0.0
 73
     3
  0
LINE
  5
82
  8
DIMNSIONS
  6
CONTINUOUS
 62
     7
 10
100.0
 20
175.25
 30
0.0
 11
100.0
 21
150.25
 31
0.0
  0
LINE
  5
83
  8
DIMNSIONS
  6
CONTINUOUS
 62
     7
 10
314.0
 20
175.25
 30
0.0
 11
314.0
 21
150.25
 31
0.0
  0
LINE
  5
84
  8
DIMNSIONS
  6
CONTINUOUS
 62
     7
 10
100.0
 20
156.25
 30
0.0
 11
314.0
 21
156.25
 31
0.0
  0
LINE
  5
85
  8
DIMNSIONS
  6
CONTINUOUS
 62
     7
 10
100.0
 20
156.25
 30
0.0
 11
107.5018676757812
 21
158.26011938545071
 31
0.0
  0
LINE
  5
86
  8
DIMNSIONS
  6
CONTINUOUS
 62
     7
 10
100.0
 20
156.25
 30
0.0
 11
107.5018676757812
 21
154.23988061454921
 31
0.0
  0
LINE
  5
87
  8
DIMNSIONS
  6
CONTINUOUS
 62
     7
 10
314.0
 20
156.25
 30
0.0
 11
306.49813232421877
 21
154.23988061454921
 31
0.0
  0
LINE
  5
88
  8
DIMNSIONS
  6
CONTINUOUS
 62
     7
 10
314.0
 20
156.25
 30
0.0
 11
306.49813232421877
 21
158.26011938545071
 31
0.0
  0
TEXT
  5
89
  8
DIMNSIONS
 62
     7
 10
199.0625
 20
159.23166666666671
 30
0.0
 40
8.1442057291666661
  1
214
 41
0.7
 11
199.0625
 21
167.37587239583331
 31
0.0
 73
     3
  0
LINE
  5
8A
  8
DIMNSIONS
  6
CONTINUOUS
 62
     7
 10
94.0
 20
275.0
 30
0.0
 11
69.0
 21
275.0
 31
0.0
  0
LINE
  5
8B
  8
DIMNSIONS
  6
CONTINUOUS
 62
     7
 10
94.0
 20
448.0
 30
0.0
 11
69.0
 21
448.0
 31
0.0
  0
LINE
  5
8C
  8
DIMNSIONS
  6
CONTINUOUS
 62
     7
 10
75.0
 20
275.0
 30
0.0
 11
75.0
 21
448.0
 31
0.0
  0
LINE
  5
8D
  8
DIMNSIONS
  6
CONTINUOUS
 62
     7
 10
75.0
 20
275.0
 30
0.0
 11
72.989880614549264
 21
282.50186767578123
 31
0.0
  0
LINE
  5
8E
  8
DIMNSIONS
  6
CONTINUOUS
 62
     7
 10
75.0
 20
275.0
 30
0.0
 11
77.010119385450736
 21
282.50186767578123
 31
0.0
  0
LINE
  5
8F
  8
DIMNSIONS
  6
CONTINUOUS
 62
     7
 10
75.0
 20
448.0
 30
0.0
 11
77.010119385450736
 21
440.49813232421877
 31
0.0
  0
LINE
  5
90
  8
DIMNSIONS
  6
CONTINUOUS
 62
     7
 10
75.0
 20
448.0
 30
0.0
 11
72.989880614549264
 21
440.49813232421877
 31
0.0
  0
TEXT
  5
91
  8
DIMNSIONS
 62
     7
 10
72.018333333333359
 20
353.5625
 30
0.0
 40
8.1442057291666661
  1
173
 50
90.0
 41
0.7
 11
63.874127604166688
 21
353.5625
 31
0.0
 73
     3
  0
LINE
  5
92
  8
DIMNSIONS
  6
CONTINUOUS
 62
     7
 10
101.5938383155093
 20
177.25
 30
0.0
 11
69.0
 21
177.25
 31
0.0
  0
LINE
  5
93
  8
DIMNSIONS
  6
CONTINUOUS
 62
     7
 10
94.0
 20
181.25
 30
0.0
 11
69.0
 21
181.25
 31
0.0
  0
LINE
  5
94
  8
DIMNSIONS
  6
CONTINUOUS
 62
     7
 10
75.0
 20
181.25
 30
0.0
 11
75.0
 21
177.25
 31
0.0
  0
LINE
  5
95
  8
DIMNSIONS
  6
CONTINUOUS
 62
     7
 10
75.0
 20
177.25
 30
0.0
 11
75.0
 21
163.45833333333329
 31
0.0
  0
LINE
  5
96
  8
DIMNSIONS
  6
CONTINUOUS
 62
     7
 10
75.0
 20
177.25
 30
0.0
 11
77.010119385450736
 21
169.74813232421869
 31
0.0
  0
LINE
  5
97
  8
DIMNSIONS
  6
CONTINUOUS
 62
     7
 10
75.0
 20
177.25
 30
0.0
 11
72.989880614549264
 21
169.74813232421869
 31
0.0
  0
LINE
  5
98
  8
DIMNSIONS
  6
CONTINUOUS
 62
     7
 10
75.0
 20
181.25
 30
0.0
 11
75.0
 21
196.25
 31
0.0
  0
LINE
  5
99
  8
DIMNSIONS
  6
CONTINUOUS
 62
     7
 10
75.0
 20
181.25
 30
0.0
 11
72.989880614549264
 21
188.75186767578131
 31
0.0
  0
LINE
  5
9A
  8
DIMNSIONS
  6
CONTINUOUS
 62
     7
 10
75.0
 20
181.25
 30
0.0
 11
77.010119385450736
 21
188.75186767578131
 31
0.0
  0
TEXT
  5
9B
  8
DIMNSIONS
 62
     7
 10
72.018333333333331
 20
163.45833333333329
 30
0.0
 40
8.1442057291666661
  1
4
 50
90.0
 41
0.7
 11
63.874127604166652
 21
163.45833333333329
 31
0.0
 73
     3
  0
LINE
  5
9C
  8
DIMNSIONS
  6
CONTINUOUS
 62
     7
 10
94.0
 20
448.0
 30
0.0
 11
69.0
 21
448.0
 31
0.0
  0
LINE
  5
9D
  8
DIMNSIONS
  6
CONTINUOUS
 62
     7
 10
155.11742788881659
 20
464.99999999993531
 30
0.0
 11
69.0
 21
464.99999999993531
 31
0.0
  0
LINE
  5
9E
  8
DIMNSIONS
  6
CONTINUOUS
 62
     7
 10
75.0
 20
464.99999999993531
 30
0.0
 11
75.0
 21
448.0
 31
0.0
  0
LINE
  5
9F
  8
DIMNSIONS
  6
CONTINUOUS
 62
     7
 10
75.0
 20
448.0
 30
0.0
 11
75.0
 21
433.0
 31
0.0
  0
LINE
  5
A0
  8
DIMNSIONS
  6
CONTINUOUS
 62
     7
 10
75.0
 20
448.0
 30
0.0
 11
77.010119385450736
 21
440.49813232421877
 31
0.0
  0
LINE
  5
A1
  8
DIMNSIONS
  6
CONTINUOUS
 62
     7
 10
75.0
 20
448.0
 30
0.0
 11
72.989880614549264
 21
440.49813232421877
 31
0.0
  0
LINE
  5
A2
  8
DIMNSIONS
  6
CONTINUOUS
 62
     7
 10
75.0
 20
464.99999999993531
 30
0.0
 11
75.0
 21
485.58333333333331
 31
0.0
  0
LINE
  5
A3
  8
DIMNSIONS
  6
CONTINUOUS
 62
     7
 10
75.0
 20
464.99999999993531
 30
0.0
 11
72.989880614549264
 21
472.50186767571682
 31
0.0
  0
LINE
  5
A4
  8
DIMNSIONS
  6
CONTINUOUS
 62
     7
 10
75.0
 20
464.99999999993531
 30
0.0
 11
77.010119385450736
 21
472.50186767571682
 31
0.0
  0
TEXT
  5
A5
  8
DIMNSIONS
 62
     7
 10
72.018333333333359
 20
475.0
 30
0.0
 40
8.1442057291666661
  1
17
 50
90.0
 41
0.7
 11
63.874127604166688
 21
475.0
 31
0.0
 73
     3
  0
TEXT
  5
A6
  8
DATA
 62
     7
 10
449.99999999999989
 20
62.714895367918253
 30
0.0
 40
7.3297851562499989
  1
EXT-HDSDI-2-DVISP
 41
0.7
 11
449.99999999999989
 21
70.044680524168257
 31
0.0
 73
     3
  0
TEXT
  5
A7
  8
DATA
 62
     7
 10
60.0
 20
42.713999999999977
 30
0.0
 40
4.8865234374999993
  1
仕様および外観は予告なく変更されることがありますので、ご了承ください。
 41
0.7
 11
60.0
 21
47.600523437499987
 31
0.0
 73
     3
  0
TEXT
  5
A8
  8
DATA
 62
     7
 10
449.9713515443359
 20
85.047561257843299
 30
0.0
 40
7.3297851562499989
  1
Gefen
 41
0.7
 11
449.9713515443359
 21
92.377346414093296
 31
0.0
 73
     3
  0
TEXT
  5
A9
  8
DATA
 62
     7
 10
445.3494740600226
 20
74.972854856753685
 30
0.0
 40
4.8865234374999993
  1
HDSDI to DVI変換機 
 41
0.7
 11
445.3494740600226
 21
79.859378294253702
 31
0.0
 73
     3
  0
LINE
  5
AA
  8
DATA
  6
CONTINUOUS
 62
     7
 10
100.0
 20
181.25
 30
0.0
 11
100.0
 21
223.25
 31
0.0
  0
LINE
  5
AB
  8
DATA
  6
CONTINUOUS
 62
     7
 10
314.0
 20
181.25
 30
0.0
 11
100.0
 21
181.25
 31
0.0
  0
LINE
  5
AC
  8
DATA
  6
CONTINUOUS
 62
     7
 10
314.0
 20
223.25
 30
0.0
 11
314.0
 21
181.25
 31
0.0
  0
LINE
  5
AD
  8
DATA
  6
CONTINUOUS
 62
     7
 10
100.0
 20
223.25
 30
0.0
 11
314.0
 21
223.25
 31
0.0
  0
LINE
  5
AE
  8
DATA
  6
CONTINUOUS
 62
     7
 10
100.0
 20
275.0
 30
0.0
 11
100.0
 21
448.0
 31
0.0
  0
LINE
  5
AF
  8
DATA
  6
CONTINUOUS
 62
     7
 10
314.0
 20
275.0
 30
0.0
 11
100.0
 21
275.0
 31
0.0
  0
LINE
  5
B0
  8
DATA
  6
CONTINUOUS
 62
     7
 10
314.0
 20
448.0
 30
0.0
 11
314.0
 21
275.0
 31
0.0
  0
LINE
  5
B1
  8
DATA
  6
CONTINUOUS
 62
     7
 10
100.0
 20
448.0
 30
0.0
 11
314.0
 21
448.0
 31
0.0
  0
LINE
  5
B2
  8
DATA
  6
CONTINUOUS
 62
     7
 10
107.5938383155093
 20
177.25
 30
0.0
 11
106.3438383155093
 21
181.25
 31
0.0
  0
LINE
  5
B3
  8
DATA
  6
CONTINUOUS
 62
     7
 10
117.0938383155093
 20
177.25
 30
0.0
 11
118.3438383155093
 21
181.25
 31
0.0
  0
LINE
  5
B4
  8
DATA
  6
CONTINUOUS
 62
     7
 10
107.5938383155093
 20
177.25
 30
0.0
 11
117.0938383155093
 21
177.25
 31
0.0
  0
LINE
  5
B5
  8
DATA
  6
CONTINUOUS
 62
     7
 10
306.40616168449071
 20
177.25
 30
0.0
 11
307.65616168449071
 21
181.25
 31
0.0
  0
LINE
  5
B6
  8
DATA
  6
CONTINUOUS
 62
     7
 10
296.90616168449071
 20
177.25
 30
0.0
 11
295.65616168449071
 21
181.25
 31
0.0
  0
LINE
  5
B7
  8
DATA
  6
CONTINUOUS
 62
     7
 10
306.40616168449071
 20
177.25
 30
0.0
 11
296.90616168449071
 21
177.25
 31
0.0
  0
CIRCLE
  5
B8
  8
DATA
  6
CONTINUOUS
 62
     7
 10
289.0
 20
196.25
 30
0.0
 40
1.4399999999999991
  0
CIRCLE
  5
B9
  8
DATA
  6
CONTINUOUS
 62
     7
 10
125.0
 20
197.25
 30
0.0
 40
1.5
  0
TEXT
  5
BA
  8
DATA
 62
     7
 10
238.68394901208239
 20
201.44365509308651
 30
0.0
 40
8.1442057291666661
  1
HDSDI
 41
0.7
 11
238.68394901208239
 21
209.58786082225319
 31
0.0
 73
     3
  0
TEXT
  5
BB
  8
DATA
 62
     7
 10
279.11666806118677
 20
201.44365509308651
 30
0.0
 40
8.1442057291666661
  1
DVI
 41
0.7
 11
279.11666806118677
 21
209.58786082225319
 31
0.0
 73
     3
  0
TEXT
  5
BC
  8
DATA
 62
     7
 10
267.66524180692647
 20
201.48498336992279
 30
0.0
 40
5.7009440104166647
  1
to
 41
0.7
 11
267.66524180692647
 21
207.18592738033951
 31
0.0
 73
     3
  0
TEXT
  5
BD
  8
DATA
 62
     7
 10
285.65796306377712
 20
183.7255492482968
 30
0.0
 40
2.4432617187500001
  1
Power
 41
0.7
 11
285.65796306377712
 21
186.1688109670468
 31
0.0
 73
     3
  0
TEXT
  5
BE
  8
DATA
 62
     7
 10
123.5476079792583
 20
183.7255492482968
 30
0.0
 40
2.4432617187500001
  1
IR
 41
0.7
 11
123.5476079792583
 21
186.1688109670468
 31
0.0
 73
     3
  0
TEXT
  5
BF
  8
DATA
 62
     7
 10
238.45521472672559
 20
194.03222699291319
 30
0.0
 40
4.8865234374999993
  1
Plus Scaler
 41
0.7
 11
238.45521472672559
 21
198.91875043041321
 31
0.0
 73
     3
  0
LINE
  5
C0
  8
DATA
  6
CONTINUOUS
 62
     7
 10
314.0
 20
284.0
 30
0.0
 11
100.0
 21
284.0
 31
0.0
  0
LINE
  5
C1
  8
DATA
  6
CONTINUOUS
 62
     7
 10
100.0
 20
548.24999999999989
 30
0.0
 11
100.0
 21
506.25
 31
0.0
  0
LINE
  5
C2
  8
DATA
  6
CONTINUOUS
 62
     7
 10
314.0
 20
548.24999999999989
 30
0.0
 11
100.0
 21
548.24999999999989
 31
0.0
  0
LINE
  5
C3
  8
DATA
  6
CONTINUOUS
 62
     7
 10
314.0
 20
506.25
 30
0.0
 11
314.0
 21
548.24999999999989
 31
0.0
  0
LINE
  5
C4
  8
DATA
  6
CONTINUOUS
 62
     7
 10
100.0
 20
506.25
 30
0.0
 11
314.0
 21
506.25
 31
0.0
  0
LINE
  5
C5
  8
DATA
  6
CONTINUOUS
 62
     7
 10
107.5938383155093
 20
552.24999999999989
 30
0.0
 11
106.3438383155093
 21
548.24999999999989
 31
0.0
  0
LINE
  5
C6
  8
DATA
  6
CONTINUOUS
 62
     7
 10
117.0938383155093
 20
552.24999999999989
 30
0.0
 11
118.3438383155093
 21
548.24999999999989
 31
0.0
  0
LINE
  5
C7
  8
DATA
  6
CONTINUOUS
 62
     7
 10
107.5938383155093
 20
552.24999999999989
 30
0.0
 11
117.0938383155093
 21
552.24999999999989
 31
0.0
  0
LINE
  5
C8
  8
DATA
  6
CONTINUOUS
 62
     7
 10
306.40616168449071
 20
552.24999999999989
 30
0.0
 11
307.65616168449071
 21
548.24999999999989
 31
0.0
  0
LINE
  5
C9
  8
DATA
  6
CONTINUOUS
 62
     7
 10
296.90616168449071
 20
552.24999999999989
 30
0.0
 11
295.65616168449071
 21
548.24999999999989
 31
0.0
  0
LINE
  5
CA
  8
DATA
  6
CONTINUOUS
 62
     7
 10
306.40616168449071
 20
552.24999999999989
 30
0.0
 11
296.90616168449071
 21
552.24999999999989
 31
0.0
  0
LINE
  5
CB
  8
DATA
  6
CONTINUOUS
 62
     7
 10
350.0
 20
181.25
 30
0.0
 11
523.0
 21
181.25
 31
0.0
  0
LINE
  5
CC
  8
DATA
  6
CONTINUOUS
 62
     7
 10
350.0
 20
223.25
 30
0.0
 11
523.0
 21
223.25
 31
0.0
  0
LINE
  5
CD
  8
DATA
  6
CONTINUOUS
 62
     7
 10
350.0
 20
181.25
 30
0.0
 11
350.0
 21
223.25
 31
0.0
  0
LINE
  5
CE
  8
DATA
  6
CONTINUOUS
 62
     7
 10
523.0
 20
181.25
 30
0.0
 11
523.0
 21
223.25
 31
0.0
  0
ARC
  5
CF
  8
DATA
  6
CONTINUOUS
 62
     7
 10
289.0
 20
275.1664125060222
 30
0.0
 40
1.4399999999999991
 50
186.63617062479071
 51
353.36382937520921
  0
CIRCLE
  5
D0
  8
DATA
  6
CONTINUOUS
 62
     7
 10
274.0
 20
531.25275958415125
 30
0.0
 40
4.75
  0
ARC
  5
D1
  8
DATA
  6
CONTINUOUS
 62
     7
 10
274.0
 20
531.25275958415125
 30
0.0
 40
7.3499999999999908
 50
114.6373448625971
 51
150.1429251864904
  0
ARC
  5
D2
  8
DATA
  6
CONTINUOUS
 62
     7
 10
274.0
 20
531.25275958415125
 30
0.0
 40
7.3500000000000059
 50
174.63734486259261
 51
210.14292518649441
  0
ARC
  5
D3
  8
DATA
  6
CONTINUOUS
 62
     7
 10
274.0
 20
531.25275958415125
 30
0.0
 40
7.3500000000000068
 50
234.63734486259631
 51
270.14292518649103
  0
ARC
  5
D4
  8
DATA
  6
CONTINUOUS
 62
     7
 10
274.0
 20
531.25275958415125
 30
0.0
 40
7.3500000000000192
 50
294.6373448625971
 51
330.14292518649052
  0
ARC
  5
D5
  8
DATA
  6
CONTINUOUS
 62
     7
 10
274.0
 20
531.25275958415125
 30
0.0
 40
7.3500000000000094
 50
354.6373448625971
 51
30.142925186490022
  0
ARC
  5
D6
  8
DATA
  6
CONTINUOUS
 62
     7
 10
274.0
 20
531.25275958415125
 30
0.0
 40
7.3499999999999854
 50
54.637344862597331
 51
90.142925186489862
  0
CIRCLE
  5
D7
  8
DATA
  6
CONTINUOUS
 62
     7
 10
274.0
 20
531.25275958415125
 30
0.0
 40
2.0
  0
CIRCLE
  5
D8
  8
DATA
  6
CONTINUOUS
 62
     7
 10
274.0
 20
531.25275958415125
 30
0.0
 40
0.5
  0
POLYLINE
  5
D9
  8
DATA
  6
CONTINUOUS
 62
     7
 66
     1
 10
0.0
 20
0.0
 30
0.0
 70
     1
  0
VERTEX
  5
42C
  8
DATA
  6
CONTINUOUS
 62
     7
 10
266.29587247673231
 20
533.69811281805482
 30
0.0
  0
VERTEX
  5
42D
  8
DATA
  6
CONTINUOUS
 62
     7
 10
268.03019821657932
 20
525.80346605195825
 30
0.0
  0
VERTEX
  5
42E
  8
DATA
  6
CONTINUOUS
 62
     7
 10
275.73432573984689
 20
523.35811281805468
 30
0.0
  0
VERTEX
  5
42F
  8
DATA
  6
CONTINUOUS
 62
     7
 10
281.70412752326769
 20
528.80740635024756
 30
0.0
  0
VERTEX
  5
430
  8
DATA
  6
CONTINUOUS
 62
     7
 10
279.96980178342068
 20
536.70205311634425
 30
0.0
  0
VERTEX
  5
431
  8
DATA
  6
CONTINUOUS
 62
     7
 10
272.26567426015311
 20
539.14740635024771
 30
0.0
  0
SEQEND
  5
432
  8
DATA
  6
CONTINUOUS
 62
     7
  0
POLYLINE
  5
E2
  8
DATA
  6
CONTINUOUS
 62
     7
 66
     1
 10
0.0
 20
0.0
 30
0.0
  0
VERTEX
  5
433
  8
DATA
  6
CONTINUOUS
 62
     7
 10
273.0
 20
535.89630348940295
 30
0.0
  0
VERTEX
  5
434
  8
DATA
  6
CONTINUOUS
 62
     7
 10
273.0
 20
536.75275958415125
 30
0.0
  0
VERTEX
  5
435
  8
DATA
  6
CONTINUOUS
 62
     7
 10
275.0
 20
536.75275958415125
 30
0.0
  0
VERTEX
  5
436
  8
DATA
  6
CONTINUOUS
 62
     7
 10
275.0
 20
535.89630348940295
 30
0.0
  0
SEQEND
  5
437
  8
DATA
  6
CONTINUOUS
 62
     7
  0
POLYLINE
  5
E9
  8
DATA
  6
CONTINUOUS
 62
     7
 66
     1
 10
0.0
 20
0.0
 30
0.0
  0
VERTEX
  5
438
  8
DATA
  6
CONTINUOUS
 62
     7
 10
275.0
 20
526.60921567889955
 30
0.0
  0
VERTEX
  5
439
  8
DATA
  6
CONTINUOUS
 62
     7
 10
275.0
 20
525.75275958415125
 30
0.0
  0
VERTEX
  5
43A
  8
DATA
  6
CONTINUOUS
 62
     7
 10
273.0
 20
525.75275958415125
 30
0.0
  0
VERTEX
  5
43B
  8
DATA
  6
CONTINUOUS
 62
     7
 10
273.0
 20
526.60921567889955
 30
0.0
  0
SEQEND
  5
43C
  8
DATA
  6
CONTINUOUS
 62
     7
  0
TEXT
  5
F0
  8
DATA
 62
     7
 10
278.9934139637478
 20
544.43231076136374
 30
0.0
 40
2.4432617187500001
  1
Ref・In
 50
180.0
 41
0.7
 11
278.9934139637478
 21
541.98904904261371
 31
0.0
 73
     3
  0
CIRCLE
  5
F1
  8
DATA
  6
CONTINUOUS
 62
     7
 10
223.0
 20
531.25275958415125
 30
0.0
 40
4.75
  0
ARC
  5
F2
  8
DATA
  6
CONTINUOUS
 62
     7
 10
223.0
 20
531.25275958415125
 30
0.0
 40
7.3499999999999899
 50
114.637344862597
 51
150.1429251864904
  0
ARC
  5
F3
  8
DATA
  6
CONTINUOUS
 62
     7
 10
223.0
 20
531.25275958415125
 30
0.0
 40
7.3500000000000139
 50
174.63734486259261
 51
210.14292518649441
  0
ARC
  5
F4
  8
DATA
  6
CONTINUOUS
 62
     7
 10
223.0
 20
531.25275958415125
 30
0.0
 40
7.3500000000000121
 50
234.63734486259631
 51
270.14292518649103
  0
ARC
  5
F5
  8
DATA
  6
CONTINUOUS
 62
     7
 10
223.0
 20
531.25275958415125
 30
0.0
 40
7.3500000000000218
 50
294.6373448625971
 51
330.14292518649052
  0
ARC
  5
F6
  8
DATA
  6
CONTINUOUS
 62
     7
 10
223.0
 20
531.25275958415125
 30
0.0
 40
7.3500000000000174
 50
354.6373448625971
 51
30.142925186490022
  0
ARC
  5
F7
  8
DATA
  6
CONTINUOUS
 62
     7
 10
223.0
 20
531.25275958415125
 30
0.0
 40
7.3499999999999854
 50
54.637344862597331
 51
90.142925186489947
  0
CIRCLE
  5
F8
  8
DATA
  6
CONTINUOUS
 62
     7
 10
223.0
 20
531.25275958415125
 30
0.0
 40
2.0
  0
CIRCLE
  5
F9
  8
DATA
  6
CONTINUOUS
 62
     7
 10
223.0
 20
531.25275958415125
 30
0.0
 40
0.5
  0
POLYLINE
  5
FA
  8
DATA
  6
CONTINUOUS
 62
     7
 66
     1
 10
0.0
 20
0.0
 30
0.0
 70
     1
  0
VERTEX
  5
43D
  8
DATA
  6
CONTINUOUS
 62
     7
 10
215.29587247673231
 20
533.69811281805482
 30
0.0
  0
VERTEX
  5
43E
  8
DATA
  6
CONTINUOUS
 62
     7
 10
217.03019821657929
 20
525.80346605195825
 30
0.0
  0
VERTEX
  5
43F
  8
DATA
  6
CONTINUOUS
 62
     7
 10
224.73432573984689
 20
523.35811281805468
 30
0.0
  0
VERTEX
  5
440
  8
DATA
  6
CONTINUOUS
 62
     7
 10
230.7041275232676
 20
528.80740635024756
 30
0.0
  0
VERTEX
  5
441
  8
DATA
  6
CONTINUOUS
 62
     7
 10
228.96980178342079
 20
536.70205311634425
 30
0.0
  0
VERTEX
  5
442
  8
DATA
  6
CONTINUOUS
 62
     7
 10
221.26567426015299
 20
539.14740635024771
 30
0.0
  0
SEQEND
  5
443
  8
DATA
  6
CONTINUOUS
 62
     7
  0
POLYLINE
  5
103
  8
DATA
  6
CONTINUOUS
 62
     7
 66
     1
 10
0.0
 20
0.0
 30
0.0
  0
VERTEX
  5
444
  8
DATA
  6
CONTINUOUS
 62
     7
 10
227.6435439052517
 20
532.25275958415125
 30
0.0
  0
VERTEX
  5
445
  8
DATA
  6
CONTINUOUS
 62
     7
 10
228.5
 20
532.25275958415125
 30
0.0
  0
VERTEX
  5
446
  8
DATA
  6
CONTINUOUS
 62
     7
 10
228.5
 20
530.25275958415125
 30
0.0
  0
VERTEX
  5
447
  8
DATA
  6
CONTINUOUS
 62
     7
 10
227.6435439052517
 20
530.25275958415125
 30
0.0
  0
SEQEND
  5
448
  8
DATA
  6
CONTINUOUS
 62
     7
  0
POLYLINE
  5
10A
  8
DATA
  6
CONTINUOUS
 62
     7
 66
     1
 10
0.0
 20
0.0
 30
0.0
  0
VERTEX
  5
449
  8
DATA
  6
CONTINUOUS
 62
     7
 10
218.3564560947483
 20
530.25275958415125
 30
0.0
  0
VERTEX
  5
44A
  8
DATA
  6
CONTINUOUS
 62
     7
 10
217.5
 20
530.25275958415125
 30
0.0
  0
VERTEX
  5
44B
  8
DATA
  6
CONTINUOUS
 62
     7
 10
217.5
 20
532.25275958415125
 30
0.0
  0
VERTEX
  5
44C
  8
DATA
  6
CONTINUOUS
 62
     7
 10
218.3564560947483
 20
532.25275958415125
 30
0.0
  0
SEQEND
  5
44D
  8
DATA
  6
CONTINUOUS
 62
     7
  0
CIRCLE
  5
111
  8
DATA
  6
CONTINUOUS
 62
     7
 10
204.0
 20
531.25275958415125
 30
0.0
 40
4.75
  0
ARC
  5
112
  8
DATA
  6
CONTINUOUS
 62
     7
 10
204.0
 20
531.25275958415125
 30
0.0
 40
7.3499999999999899
 50
114.637344862597
 51
150.1429251864904
  0
ARC
  5
113
  8
DATA
  6
CONTINUOUS
 62
     7
 10
204.0
 20
531.25275958415125
 30
0.0
 40
7.3500000000000139
 50
174.63734486259261
 51
210.14292518649441
  0
ARC
  5
114
  8
DATA
  6
CONTINUOUS
 62
     7
 10
204.0
 20
531.25275958415125
 30
0.0
 40
7.3500000000000121
 50
234.63734486259631
 51
270.14292518649103
  0
ARC
  5
115
  8
DATA
  6
CONTINUOUS
 62
     7
 10
204.0
 20
531.25275958415125
 30
0.0
 40
7.3500000000000218
 50
294.6373448625971
 51
330.14292518649052
  0
ARC
  5
116
  8
DATA
  6
CONTINUOUS
 62
     7
 10
204.0
 20
531.25275958415125
 30
0.0
 40
7.3500000000000174
 50
354.6373448625971
 51
30.142925186490022
  0
ARC
  5
117
  8
DATA
  6
CONTINUOUS
 62
     7
 10
204.0
 20
531.25275958415125
 30
0.0
 40
7.3499999999999854
 50
54.637344862597331
 51
90.142925186489947
  0
CIRCLE
  5
118
  8
DATA
  6
CONTINUOUS
 62
     7
 10
204.0
 20
531.25275958415125
 30
0.0
 40
2.0
  0
CIRCLE
  5
119
  8
DATA
  6
CONTINUOUS
 62
     7
 10
204.0
 20
531.25275958415125
 30
0.0
 40
0.5
  0
POLYLINE
  5
11A
  8
DATA
  6
CONTINUOUS
 62
     7
 66
     1
 10
0.0
 20
0.0
 30
0.0
 70
     1
  0
VERTEX
  5
44E
  8
DATA
  6
CONTINUOUS
 62
     7
 10
196.29587247673231
 20
533.69811281805482
 30
0.0
  0
VERTEX
  5
44F
  8
DATA
  6
CONTINUOUS
 62
     7
 10
198.03019821657929
 20
525.80346605195825
 30
0.0
  0
VERTEX
  5
450
  8
DATA
  6
CONTINUOUS
 62
     7
 10
205.73432573984689
 20
523.35811281805468
 30
0.0
  0
VERTEX
  5
451
  8
DATA
  6
CONTINUOUS
 62
     7
 10
211.70412752326769
 20
528.80740635024756
 30
0.0
  0
VERTEX
  5
452
  8
DATA
  6
CONTINUOUS
 62
     7
 10
209.96980178342071
 20
536.70205311634425
 30
0.0
  0
VERTEX
  5
453
  8
DATA
  6
CONTINUOUS
 62
     7
 10
202.26567426015299
 20
539.14740635024771
 30
0.0
  0
SEQEND
  5
454
  8
DATA
  6
CONTINUOUS
 62
     7
  0
POLYLINE
  5
123
  8
DATA
  6
CONTINUOUS
 62
     7
 66
     1
 10
0.0
 20
0.0
 30
0.0
  0
VERTEX
  5
455
  8
DATA
  6
CONTINUOUS
 62
     7
 10
208.6435439052517
 20
532.25275958415125
 30
0.0
  0
VERTEX
  5
456
  8
DATA
  6
CONTINUOUS
 62
     7
 10
209.5
 20
532.25275958415125
 30
0.0
  0
VERTEX
  5
457
  8
DATA
  6
CONTINUOUS
 62
     7
 10
209.5
 20
530.25275958415125
 30
0.0
  0
VERTEX
  5
458
  8
DATA
  6
CONTINUOUS
 62
     7
 10
208.6435439052517
 20
530.25275958415125
 30
0.0
  0
SEQEND
  5
459
  8
DATA
  6
CONTINUOUS
 62
     7
  0
POLYLINE
  5
12A
  8
DATA
  6
CONTINUOUS
 62
     7
 66
     1
 10
0.0
 20
0.0
 30
0.0
  0
VERTEX
  5
45A
  8
DATA
  6
CONTINUOUS
 62
     7
 10
199.3564560947483
 20
530.25275958415125
 30
0.0
  0
VERTEX
  5
45B
  8
DATA
  6
CONTINUOUS
 62
     7
 10
198.5
 20
530.25275958415125
 30
0.0
  0
VERTEX
  5
45C
  8
DATA
  6
CONTINUOUS
 62
     7
 10
198.5
 20
532.25275958415125
 30
0.0
  0
VERTEX
  5
45D
  8
DATA
  6
CONTINUOUS
 62
     7
 10
199.3564560947483
 20
532.25275958415125
 30
0.0
  0
SEQEND
  5
45E
  8
DATA
  6
CONTINUOUS
 62
     7
  0
CIRCLE
  5
131
  8
DATA
  6
CONTINUOUS
 62
     7
 10
185.0
 20
531.25275958415125
 30
0.0
 40
4.75
  0
ARC
  5
132
  8
DATA
  6
CONTINUOUS
 62
     7
 10
185.0
 20
531.25275958415125
 30
0.0
 40
7.3499999999999899
 50
114.637344862597
 51
150.1429251864904
  0
ARC
  5
133
  8
DATA
  6
CONTINUOUS
 62
     7
 10
185.0
 20
531.25275958415125
 30
0.0
 40
7.3500000000000139
 50
174.63734486259261
 51
210.14292518649441
  0
ARC
  5
134
  8
DATA
  6
CONTINUOUS
 62
     7
 10
185.0
 20
531.25275958415125
 30
0.0
 40
7.3500000000000121
 50
234.63734486259631
 51
270.14292518649103
  0
ARC
  5
135
  8
DATA
  6
CONTINUOUS
 62
     7
 10
185.0
 20
531.25275958415125
 30
0.0
 40
7.3500000000000218
 50
294.6373448625971
 51
330.14292518649052
  0
ARC
  5
136
  8
DATA
  6
CONTINUOUS
 62
     7
 10
185.0
 20
531.25275958415125
 30
0.0
 40
7.3500000000000174
 50
354.6373448625971
 51
30.142925186490022
  0
ARC
  5
137
  8
DATA
  6
CONTINUOUS
 62
     7
 10
185.0
 20
531.25275958415125
 30
0.0
 40
7.3499999999999854
 50
54.637344862597331
 51
90.142925186489947
  0
CIRCLE
  5
138
  8
DATA
  6
CONTINUOUS
 62
     7
 10
185.0
 20
531.25275958415125
 30
0.0
 40
2.0
  0
CIRCLE
  5
139
  8
DATA
  6
CONTINUOUS
 62
     7
 10
185.0
 20
531.25275958415125
 30
0.0
 40
0.5
  0
POLYLINE
  5
13A
  8
DATA
  6
CONTINUOUS
 62
     7
 66
     1
 10
0.0
 20
0.0
 30
0.0
 70
     1
  0
VERTEX
  5
45F
  8
DATA
  6
CONTINUOUS
 62
     7
 10
177.29587247673231
 20
533.69811281805482
 30
0.0
  0
VERTEX
  5
460
  8
DATA
  6
CONTINUOUS
 62
     7
 10
179.03019821657929
 20
525.80346605195825
 30
0.0
  0
VERTEX
  5
461
  8
DATA
  6
CONTINUOUS
 62
     7
 10
186.73432573984689
 20
523.35811281805468
 30
0.0
  0
VERTEX
  5
462
  8
DATA
  6
CONTINUOUS
 62
     7
 10
192.7041275232676
 20
528.80740635024756
 30
0.0
  0
VERTEX
  5
463
  8
DATA
  6
CONTINUOUS
 62
     7
 10
190.96980178342071
 20
536.70205311634425
 30
0.0
  0
VERTEX
  5
464
  8
DATA
  6
CONTINUOUS
 62
     7
 10
183.26567426015299
 20
539.14740635024771
 30
0.0
  0
SEQEND
  5
465
  8
DATA
  6
CONTINUOUS
 62
     7
  0
POLYLINE
  5
143
  8
DATA
  6
CONTINUOUS
 62
     7
 66
     1
 10
0.0
 20
0.0
 30
0.0
  0
VERTEX
  5
466
  8
DATA
  6
CONTINUOUS
 62
     7
 10
189.6435439052517
 20
532.25275958415125
 30
0.0
  0
VERTEX
  5
467
  8
DATA
  6
CONTINUOUS
 62
     7
 10
190.5
 20
532.25275958415125
 30
0.0
  0
VERTEX
  5
468
  8
DATA
  6
CONTINUOUS
 62
     7
 10
190.5
 20
530.25275958415125
 30
0.0
  0
VERTEX
  5
469
  8
DATA
  6
CONTINUOUS
 62
     7
 10
189.6435439052517
 20
530.25275958415125
 30
0.0
  0
SEQEND
  5
46A
  8
DATA
  6
CONTINUOUS
 62
     7
  0
POLYLINE
  5
14A
  8
DATA
  6
CONTINUOUS
 62
     7
 66
     1
 10
0.0
 20
0.0
 30
0.0
  0
VERTEX
  5
46B
  8
DATA
  6
CONTINUOUS
 62
     7
 10
180.3564560947483
 20
530.25275958415125
 30
0.0
  0
VERTEX
  5
46C
  8
DATA
  6
CONTINUOUS
 62
     7
 10
179.5
 20
530.25275958415125
 30
0.0
  0
VERTEX
  5
46D
  8
DATA
  6
CONTINUOUS
 62
     7
 10
179.5
 20
532.25275958415125
 30
0.0
  0
VERTEX
  5
46E
  8
DATA
  6
CONTINUOUS
 62
     7
 10
180.3564560947483
 20
532.25275958415125
 30
0.0
  0
SEQEND
  5
46F
  8
DATA
  6
CONTINUOUS
 62
     7
  0
CIRCLE
  5
151
  8
DATA
  6
CONTINUOUS
 62
     7
 10
166.0
 20
531.25275958415125
 30
0.0
 40
4.75
  0
ARC
  5
152
  8
DATA
  6
CONTINUOUS
 62
     7
 10
166.0
 20
531.25275958415125
 30
0.0
 40
7.3499999999999961
 50
114.6373448625971
 51
150.1429251864904
  0
ARC
  5
153
  8
DATA
  6
CONTINUOUS
 62
     7
 10
166.0
 20
531.25275958415125
 30
0.0
 40
7.3500000000000281
 50
174.63734486259261
 51
210.1429251864943
  0
ARC
  5
154
  8
DATA
  6
CONTINUOUS
 62
     7
 10
166.0
 20
531.25275958415125
 30
0.0
 40
7.350000000000021
 50
234.63734486259619
 51
270.14292518649091
  0
ARC
  5
155
  8
DATA
  6
CONTINUOUS
 62
     7
 10
166.0
 20
531.25275958415125
 30
0.0
 40
7.3500000000000218
 50
294.6373448625971
 51
330.14292518649052
  0
ARC
  5
156
  8
DATA
  6
CONTINUOUS
 62
     7
 10
166.0
 20
531.25275958415125
 30
0.0
 40
7.3500000000000032
 50
354.6373448625971
 51
30.14292518649005
  0
ARC
  5
157
  8
DATA
  6
CONTINUOUS
 62
     7
 10
166.0
 20
531.25275958415125
 30
0.0
 40
7.3499999999999854
 50
54.637344862597331
 51
90.142925186490046
  0
CIRCLE
  5
158
  8
DATA
  6
CONTINUOUS
 62
     7
 10
166.0
 20
531.25275958415125
 30
0.0
 40
2.0
  0
CIRCLE
  5
159
  8
DATA
  6
CONTINUOUS
 62
     7
 10
166.0
 20
531.25275958415125
 30
0.0
 40
0.5
  0
POLYLINE
  5
15A
  8
DATA
  6
CONTINUOUS
 62
     7
 66
     1
 10
0.0
 20
0.0
 30
0.0
 70
     1
  0
VERTEX
  5
470
  8
DATA
  6
CONTINUOUS
 62
     7
 10
158.29587247673231
 20
533.69811281805482
 30
0.0
  0
VERTEX
  5
471
  8
DATA
  6
CONTINUOUS
 62
     7
 10
160.03019821657929
 20
525.80346605195825
 30
0.0
  0
VERTEX
  5
472
  8
DATA
  6
CONTINUOUS
 62
     7
 10
167.73432573984701
 20
523.35811281805468
 30
0.0
  0
VERTEX
  5
473
  8
DATA
  6
CONTINUOUS
 62
     7
 10
173.7041275232676
 20
528.80740635024756
 30
0.0
  0
VERTEX
  5
474
  8
DATA
  6
CONTINUOUS
 62
     7
 10
171.96980178342071
 20
536.70205311634425
 30
0.0
  0
VERTEX
  5
475
  8
DATA
  6
CONTINUOUS
 62
     7
 10
164.26567426015299
 20
539.14740635024771
 30
0.0
  0
SEQEND
  5
476
  8
DATA
  6
CONTINUOUS
 62
     7
  0
POLYLINE
  5
163
  8
DATA
  6
CONTINUOUS
 62
     7
 66
     1
 10
0.0
 20
0.0
 30
0.0
  0
VERTEX
  5
477
  8
DATA
  6
CONTINUOUS
 62
     7
 10
170.6435439052517
 20
532.25275958415125
 30
0.0
  0
VERTEX
  5
478
  8
DATA
  6
CONTINUOUS
 62
     7
 10
171.5
 20
532.25275958415125
 30
0.0
  0
VERTEX
  5
479
  8
DATA
  6
CONTINUOUS
 62
     7
 10
171.5
 20
530.25275958415125
 30
0.0
  0
VERTEX
  5
47A
  8
DATA
  6
CONTINUOUS
 62
     7
 10
170.6435439052517
 20
530.25275958415125
 30
0.0
  0
SEQEND
  5
47B
  8
DATA
  6
CONTINUOUS
 62
     7
  0
POLYLINE
  5
16A
  8
DATA
  6
CONTINUOUS
 62
     7
 66
     1
 10
0.0
 20
0.0
 30
0.0
  0
VERTEX
  5
47C
  8
DATA
  6
CONTINUOUS
 62
     7
 10
161.3564560947483
 20
530.25275958415125
 30
0.0
  0
VERTEX
  5
47D
  8
DATA
  6
CONTINUOUS
 62
     7
 10
160.5
 20
530.25275958415125
 30
0.0
  0
VERTEX
  5
47E
  8
DATA
  6
CONTINUOUS
 62
     7
 10
160.5
 20
532.25275958415125
 30
0.0
  0
VERTEX
  5
47F
  8
DATA
  6
CONTINUOUS
 62
     7
 10
161.3564560947483
 20
532.25275958415125
 30
0.0
  0
SEQEND
  5
480
  8
DATA
  6
CONTINUOUS
 62
     7
  0
TEXT
  5
171
  8
DATA
 62
     7
 10
224.5813107244519
 20
544.43231076136374
 30
0.0
 40
2.4432617187500001
  1
In
 50
180.0
 41
0.7
 11
224.5813107244519
 21
541.98904904261371
 31
0.0
 73
     3
  0
TEXT
  5
172
  8
DATA
 62
     7
 10
210.19818458504889
 20
544.43231076136374
 30
0.0
 40
2.4432617187500001
  1
Loop Out
 50
180.0
 41
0.7
 11
210.19818458504889
 21
541.98904904261371
 31
0.0
 73
     3
  0
TEXT
  5
173
  8
DATA
 62
     7
 10
186.5813107244519
 20
544.43231076136374
 30
0.0
 40
2.4432617187500001
  1
In
 50
180.0
 41
0.7
 11
186.5813107244519
 21
541.98904904261371
 31
0.0
 73
     3
  0
TEXT
  5
174
  8
DATA
 62
     7
 10
173.2046213416769
 20
544.43231076136374
 30
0.0
 40
2.4432617187500001
  1
Loop Out
 50
180.0
 41
0.7
 11
173.2046213416769
 21
541.98904904261371
 31
0.0
 73
     3
  0
CIRCLE
  5
175
  8
DATA
  6
CONTINUOUS
 62
     7
 10
122.4968933187747
 20
517.87492545412977
 30
0.0
 40
1.1750000000000389
  0
POLYLINE
  5
176
  8
DATA
  6
CONTINUOUS
 62
     7
 66
     1
 10
0.0
 20
0.0
 30
0.0
 70
     1
  0
VERTEX
  5
481
  8
DATA
  6
CONTINUOUS
 62
     7
 10
122.4968933187747
 20
515.17492545412995
 30
0.0
  0
VERTEX
  5
482
  8
DATA
  6
CONTINUOUS
 62
     7
 10
124.8351619089925
 20
516.52492545412974
 30
0.0
  0
VERTEX
  5
483
  8
DATA
  6
CONTINUOUS
 62
     7
 10
124.8351619089925
 20
519.22492545412956
 30
0.0
  0
VERTEX
  5
484
  8
DATA
  6
CONTINUOUS
 62
     7
 10
122.4968933187747
 20
520.57492545412947
 30
0.0
  0
VERTEX
  5
485
  8
DATA
  6
CONTINUOUS
 62
     7
 10
120.1586247285567
 20
519.22492545412956
 30
0.0
  0
VERTEX
  5
486
  8
DATA
  6
CONTINUOUS
 62
     7
 10
120.1586247285567
 20
516.52492545412974
 30
0.0
  0
SEQEND
  5
487
  8
DATA
  6
CONTINUOUS
 62
     7
  0
CIRCLE
  5
17F
  8
DATA
  6
CONTINUOUS
 62
     7
 10
147.4968933187748
 20
517.87492545412977
 30
0.0
 40
1.175000000000068
  0
POLYLINE
  5
180
  8
DATA
  6
CONTINUOUS
 62
     7
 66
     1
 10
0.0
 20
0.0
 30
0.0
 70
     1
  0
VERTEX
  5
488
  8
DATA
  6
CONTINUOUS
 62
     7
 10
147.4968933187748
 20
515.17492545412995
 30
0.0
  0
VERTEX
  5
489
  8
DATA
  6
CONTINUOUS
 62
     7
 10
149.83516190899269
 20
516.52492545412974
 30
0.0
  0
VERTEX
  5
48A
  8
DATA
  6
CONTINUOUS
 62
     7
 10
149.83516190899269
 20
519.22492545412956
 30
0.0
  0
VERTEX
  5
48B
  8
DATA
  6
CONTINUOUS
 62
     7
 10
147.4968933187748
 20
520.57492545412947
 30
0.0
  0
VERTEX
  5
48C
  8
DATA
  6
CONTINUOUS
 62
     7
 10
145.1586247285567
 20
519.22492545412956
 30
0.0
  0
VERTEX
  5
48D
  8
DATA
  6
CONTINUOUS
 62
     7
 10
145.1586247285567
 20
516.52492545412974
 30
0.0
  0
SEQEND
  5
48E
  8
DATA
  6
CONTINUOUS
 62
     7
  0
LINE
  5
189
  8
DATA
  6
CONTINUOUS
 62
     7
 10
129.39513010858599
 20
521.87492545412965
 30
0.0
 11
140.59865652896329
 21
521.87492545412965
 31
0.0
  0
LINE
  5
18A
  8
DATA
  6
CONTINUOUS
 62
     7
 10
141.4111565289632
 20
513.87492545412977
 30
0.0
 11
128.5826301085861
 21
513.87492545412977
 31
0.0
  0
LINE
  5
18B
  8
DATA
  6
CONTINUOUS
 62
     7
 10
141.98187337621479
 20
520.69105308651262
 30
0.0
 11
142.79437337621471
 21
515.49105308651292
 31
0.0
  0
LINE
  5
18C
  8
DATA
  6
CONTINUOUS
 62
     7
 10
127.1994132613345
 20
515.49105308651292
 30
0.0
 11
128.01191326133451
 21
520.69105308651262
 31
0.0
  0
CIRCLE
  5
18D
  8
DATA
  6
CONTINUOUS
 62
     7
 10
135.02352308924949
 20
516.23861728297607
 30
0.0
 40
0.5
  0
ARC
  5
18E
  8
DATA
  6
CONTINUOUS
 62
     7
 10
141.4111565289632
 20
515.27492545412974
 30
0.0
 40
1.399999999999977
 50
270.0
 51
8.8806591505205574
  0
ARC
  5
18F
  8
DATA
  6
CONTINUOUS
 62
     7
 10
128.5826301085861
 20
515.27492545412974
 30
0.0
 40
1.400000000000019
 50
171.1193408494795
 51
270.0
  0
ARC
  5
190
  8
DATA
  6
CONTINUOUS
 62
     7
 10
140.59865652896329
 20
520.47492545412956
 30
0.0
 40
1.400000000000019
 50
8.8806591505205308
 51
90.0
  0
ARC
  5
191
  8
DATA
  6
CONTINUOUS
 62
     7
 10
129.39513010858599
 20
520.47492545412956
 30
0.0
 40
1.400000000000005
 50
90.0
 51
171.1193408494795
  0
LINE
  5
192
  8
DATA
  6
CONTINUOUS
 62
     7
 10
127.83808938812049
 20
523.87492545412965
 30
0.0
 11
142.1556972494287
 21
523.87492545412965
 31
0.0
  0
LINE
  5
193
  8
DATA
  6
CONTINUOUS
 62
     7
 10
143.17453897002511
 20
511.87492545412971
 30
0.0
 11
126.8192476675241
 21
511.87492545412971
 31
0.0
  0
LINE
  5
194
  8
DATA
  6
CONTINUOUS
 62
     7
 10
145.14638419716849
 20
514.20932999984075
 30
0.0
 11
143.7331734311434
 21
522.54244909069826
 31
0.0
  0
LINE
  5
195
  8
DATA
  6
CONTINUOUS
 62
     7
 10
124.8474024403809
 20
514.20932999984075
 30
0.0
 11
126.26061320640591
 21
522.54244909069826
 31
0.0
  0
ARC
  5
196
  8
DATA
  6
CONTINUOUS
 62
     7
 10
143.17453897002511
 20
513.87492545412977
 30
0.0
 40
2.000000000000056
 50
270.0
 51
9.6251929436205064
  0
ARC
  5
197
  8
DATA
  6
CONTINUOUS
 62
     7
 10
126.8192476675241
 20
513.87492545412977
 30
0.0
 40
1.999999999999958
 50
170.37480705637881
 51
270.0
  0
ARC
  5
198
  8
DATA
  6
CONTINUOUS
 62
     7
 10
142.15569724942861
 20
522.27492545412952
 30
0.0
 40
1.600000000000114
 50
9.6251929436206716
 51
89.999999999995936
  0
ARC
  5
199
  8
DATA
  6
CONTINUOUS
 62
     7
 10
127.83808938812049
 20
522.27492545412952
 30
0.0
 40
1.599999999999965
 50
90.0
 51
170.3748070563783
  0
CIRCLE
  5
19A
  8
DATA
  6
CONTINUOUS
 62
     7
 10
137.52352308924949
 20
516.23861728297607
 30
0.0
 40
0.5
  0
CIRCLE
  5
19B
  8
DATA
  6
CONTINUOUS
 62
     7
 10
140.02352308924949
 20
516.23861728297607
 30
0.0
 40
0.5
  0
CIRCLE
  5
19C
  8
DATA
  6
CONTINUOUS
 62
     7
 10
132.52352308924949
 20
516.23861728297607
 30
0.0
 40
0.5
  0
CIRCLE
  5
19D
  8
DATA
  6
CONTINUOUS
 62
     7
 10
130.02352308924949
 20
516.23861728297607
 30
0.0
 40
0.5
  0
CIRCLE
  5
19E
  8
DATA
  6
CONTINUOUS
 62
     7
 10
136.2190342653208
 20
519.85713770173845
 30
0.0
 40
0.5
  0
CIRCLE
  5
19F
  8
DATA
  6
CONTINUOUS
 62
     7
 10
138.7190342653208
 20
519.85713770173845
 30
0.0
 40
0.5
  0
CIRCLE
  5
1A0
  8
DATA
  6
CONTINUOUS
 62
     7
 10
133.7190342653208
 20
519.85713770173845
 30
0.0
 40
0.5
  0
CIRCLE
  5
1A1
  8
DATA
  6
CONTINUOUS
 62
     7
 10
131.2190342653208
 20
519.85713770173845
 30
0.0
 40
0.5
  0
TEXT
  5
1A2
  8
DATA
 62
     7
 10
140.2493462072525
 20
510.30451079205039
 30
0.0
 40
2.4432617187500001
  1
RS-232
 50
180.0
 41
0.7
 11
140.2493462072525
 21
507.86124907330043
 31
0.0
 73
     3
  0
CIRCLE
  5
1A3
  8
DATA
  6
CONTINUOUS
 62
     7
 10
255.03365813177359
 20
531.26612281460757
 30
0.0
 40
4.1499999999999986
  0
CIRCLE
  5
1A4
  8
DATA
  6
CONTINUOUS
 62
     7
 10
255.03365813177359
 20
531.26612281460757
 30
0.0
 40
1.75
  0
TEXT
  5
1A5
  8
DATA
 62
     7
 10
256.0011915423533
 20
544.43231076136374
 30
0.0
 40
2.4432617187500001
  1
L
 50
180.0
 41
0.7
 11
256.0011915423533
 21
541.98904904261371
 31
0.0
 73
     3
  0
CIRCLE
  5
1A6
  8
DATA
  6
CONTINUOUS
 62
     7
 10
291.03319818114812
 20
531.23841583901856
 30
0.0
 40
3.900000000000007
  0
CIRCLE
  5
1A7
  8
DATA
  6
CONTINUOUS
 62
     7
 10
291.03319818114812
 20
531.23841583901856
 30
0.0
 40
0.7500000000000054
  0
CIRCLE
  5
1A8
  8
DATA
  6
CONTINUOUS
 62
     7
 10
291.03319818114812
 20
531.23841583901856
 30
0.0
 40
5.2500000000000009
  0
TEXT
  5
1A9
  8
DATA
 62
     7
 10
295.06821234803482
 20
543.96940015157099
 30
0.0
 40
2.4432617187500001
  1
5V DC
 50
180.0
 41
0.7
 11
295.06821234803482
 21
541.52613843282097
 31
0.0
 73
     3
  0
TEXT
  5
1AA
  8
DATA
 62
     7
 10
207.27040783513971
 20
521.52966712677573
 30
0.0
 40
2.4432617187500001
  1
HDSDI DUAL LINK
 50
180.0
 41
0.7
 11
207.27040783513971
 21
519.08640540802571
 31
0.0
 73
     3
  0
LINE
  5
1AB
  8
DATA
  6
CONTINUOUS
 62
     7
 10
166.0
 20
523.90860202579029
 30
0.0
 11
166.0
 21
520.23556135713341
 31
0.0
  0
LINE
  5
1AC
  8
DATA
  6
CONTINUOUS
 62
     7
 10
223.0
 20
523.90860202579029
 30
0.0
 11
223.0
 21
520.23556135713341
 31
0.0
  0
LINE
  5
1AD
  8
DATA
  6
CONTINUOUS
 62
     7
 10
166.0
 20
520.23556135713341
 30
0.0
 11
182.44999999999999
 21
520.23556135713341
 31
0.0
  0
LINE
  5
1AE
  8
DATA
  6
CONTINUOUS
 62
     7
 10
223.0
 20
520.23556135713341
 30
0.0
 11
208.80000000000001
 21
520.23556135713341
 31
0.0
  0
LINE
  5
1AF
  8
DATA
  6
CONTINUOUS
 62
     7
 10
278.61742788881668
 20
464.99999999993531
 30
0.0
 11
269.11742788881668
 21
464.99999999993531
 31
0.0
  0
LINE
  5
1B0
  8
DATA
  6
CONTINUOUS
 62
     7
 10
281.57155541208431
 20
452.99999999993531
 30
0.0
 11
266.16330036554899
 21
452.99999999993531
 31
0.0
  0
LINE
  5
1B1
  8
DATA
  6
CONTINUOUS
 62
     7
 10
269.11742788881668
 20
464.99999999993531
 30
0.0
 11
269.11742788881668
 21
452.99999999993531
 31
0.0
  0
LINE
  5
1B2
  8
DATA
  6
CONTINUOUS
 62
     7
 10
278.61742788881668
 20
464.99999999993531
 30
0.0
 11
278.61742788881668
 21
452.99999999993531
 31
0.0
  0
LINE
  5
1B3
  8
DATA
  6
CONTINUOUS
 62
     7
 10
266.16330036554899
 20
452.99999999993531
 30
0.0
 11
266.16330036554899
 21
447.99999999993531
 31
0.0
  0
LINE
  5
1B4
  8
DATA
  6
CONTINUOUS
 62
     7
 10
281.57155541208431
 20
452.99999999993531
 30
0.0
 11
281.57155541208431
 21
447.99999999993531
 31
0.0
  0
LINE
  5
1B5
  8
DATA
  6
CONTINUOUS
 62
     7
 10
285.6037175407061
 20
450.0
 30
0.0
 11
285.6037175407061
 21
448.0
 31
0.0
  0
LINE
  5
1B6
  8
DATA
  6
CONTINUOUS
 62
     7
 10
296.1037175407061
 20
450.0
 30
0.0
 11
296.1037175407061
 21
448.0
 31
0.0
  0
LINE
  5
1B7
  8
DATA
  6
CONTINUOUS
 62
     7
 10
286.95371754070618
 20
454.0
 30
0.0
 11
286.95371754070618
 21
450.0
 31
0.0
  0
LINE
  5
1B8
  8
DATA
  6
CONTINUOUS
 62
     7
 10
294.73798066258593
 20
454.0
 30
0.0
 11
294.73798066258593
 21
450.0
 31
0.0
  0
LINE
  5
1B9
  8
DATA
  6
CONTINUOUS
 62
     7
 10
285.6037175407061
 20
450.0
 30
0.0
 11
296.1037175407061
 21
450.0
 31
0.0
  0
LINE
  5
1BA
  8
DATA
  6
CONTINUOUS
 62
     7
 10
143.32266107314391
 20
452.50000000021572
 30
0.0
 11
125.5017880750445
 21
452.50000000021572
 31
0.0
  0
LINE
  5
1BB
  8
DATA
  6
CONTINUOUS
 62
     7
 10
125.5017880750445
 20
452.50000000021572
 30
0.0
 11
125.5017880750445
 21
447.99999999985499
 31
0.0
  0
LINE
  5
1BC
  8
DATA
  6
CONTINUOUS
 62
     7
 10
143.32266107314391
 20
452.50000000021572
 30
0.0
 11
143.32266107314391
 21
447.99999999985499
 31
0.0
  0
LINE
  5
1BD
  8
DATA
  6
CONTINUOUS
 62
     7
 10
119.66313714839301
 20
452.50000000021572
 30
0.0
 11
119.66313714839301
 21
448.0
 31
0.0
  0
LINE
  5
1BE
  8
DATA
  6
CONTINUOUS
 62
     7
 10
124.33967432882891
 20
452.50000000021572
 30
0.0
 11
124.33967432882891
 21
448.0
 31
0.0
  0
LINE
  5
1BF
  8
DATA
  6
CONTINUOUS
 62
     7
 10
149.3396743288292
 20
452.50000000021572
 30
0.0
 11
149.3396743288292
 21
448.0
 31
0.0
  0
LINE
  5
1C0
  8
DATA
  6
CONTINUOUS
 62
     7
 10
144.66313714839319
 20
452.50000000021572
 30
0.0
 11
144.66313714839319
 21
448.0
 31
0.0
  0
LINE
  5
1C1
  8
DATA
  6
CONTINUOUS
 62
     7
 10
124.33967432882891
 20
452.50000000021572
 30
0.0
 11
119.66313714839301
 21
452.50000000021572
 31
0.0
  0
LINE
  5
1C2
  8
DATA
  6
CONTINUOUS
 62
     7
 10
144.66313714839319
 20
452.50000000021572
 30
0.0
 11
149.3396743288292
 21
452.50000000021572
 31
0.0
  0
LINE
  5
1C3
  8
DATA
  6
CONTINUOUS
 62
     7
 10
227.61742788881659
 20
464.99999999993531
 30
0.0
 11
218.11742788881671
 21
464.99999999993531
 31
0.0
  0
LINE
  5
1C4
  8
DATA
  6
CONTINUOUS
 62
     7
 10
230.57155541208439
 20
452.99999999993531
 30
0.0
 11
215.16330036554899
 21
452.99999999993531
 31
0.0
  0
LINE
  5
1C5
  8
DATA
  6
CONTINUOUS
 62
     7
 10
218.11742788881671
 20
464.99999999993531
 30
0.0
 11
218.11742788881671
 21
452.99999999993531
 31
0.0
  0
LINE
  5
1C6
  8
DATA
  6
CONTINUOUS
 62
     7
 10
227.61742788881659
 20
464.99999999993531
 30
0.0
 11
227.61742788881659
 21
452.99999999993531
 31
0.0
  0
LINE
  5
1C7
  8
DATA
  6
CONTINUOUS
 62
     7
 10
217.36742788881659
 20
461.99999999993531
 30
0.0
 11
217.36742788881659
 21
459.99999999993531
 31
0.0
  0
LINE
  5
1C8
  8
DATA
  6
CONTINUOUS
 62
     7
 10
228.36742788881671
 20
461.99999999993531
 30
0.0
 11
228.36742788881671
 21
459.99999999993531
 31
0.0
  0
LINE
  5
1C9
  8
DATA
  6
CONTINUOUS
 62
     7
 10
217.36742788881659
 20
461.99999999993531
 30
0.0
 11
218.11742788881671
 21
461.99999999993531
 31
0.0
  0
LINE
  5
1CA
  8
DATA
  6
CONTINUOUS
 62
     7
 10
227.61742788881659
 20
461.99999999993531
 30
0.0
 11
228.36742788881671
 21
461.99999999993531
 31
0.0
  0
LINE
  5
1CB
  8
DATA
  6
CONTINUOUS
 62
     7
 10
217.36742788881659
 20
459.99999999993531
 30
0.0
 11
218.11742788881671
 21
459.99999999993531
 31
0.0
  0
LINE
  5
1CC
  8
DATA
  6
CONTINUOUS
 62
     7
 10
227.61742788881659
 20
459.99999999993531
 30
0.0
 11
228.36742788881671
 21
459.99999999993531
 31
0.0
  0
LINE
  5
1CD
  8
DATA
  6
CONTINUOUS
 62
     7
 10
215.16330036554899
 20
452.99999999993531
 30
0.0
 11
215.16330036554899
 21
447.99999999993531
 31
0.0
  0
LINE
  5
1CE
  8
DATA
  6
CONTINUOUS
 62
     7
 10
230.57155541208439
 20
452.99999999993531
 30
0.0
 11
230.57155541208439
 21
447.99999999993531
 31
0.0
  0
LINE
  5
1CF
  8
DATA
  6
CONTINUOUS
 62
     7
 10
208.61742788881659
 20
464.99999999993531
 30
0.0
 11
199.11742788881659
 21
464.99999999993531
 31
0.0
  0
LINE
  5
1D0
  8
DATA
  6
CONTINUOUS
 62
     7
 10
211.57155541208439
 20
452.99999999993531
 30
0.0
 11
196.16330036554891
 21
452.99999999993531
 31
0.0
  0
LINE
  5
1D1
  8
DATA
  6
CONTINUOUS
 62
     7
 10
199.11742788881659
 20
464.99999999993531
 30
0.0
 11
199.11742788881659
 21
452.99999999993531
 31
0.0
  0
LINE
  5
1D2
  8
DATA
  6
CONTINUOUS
 62
     7
 10
208.61742788881659
 20
464.99999999993531
 30
0.0
 11
208.61742788881659
 21
452.99999999993531
 31
0.0
  0
LINE
  5
1D3
  8
DATA
  6
CONTINUOUS
 62
     7
 10
198.36742788881659
 20
461.99999999993531
 30
0.0
 11
198.36742788881659
 21
459.99999999993531
 31
0.0
  0
LINE
  5
1D4
  8
DATA
  6
CONTINUOUS
 62
     7
 10
209.36742788881659
 20
461.99999999993531
 30
0.0
 11
209.36742788881659
 21
459.99999999993531
 31
0.0
  0
LINE
  5
1D5
  8
DATA
  6
CONTINUOUS
 62
     7
 10
198.36742788881659
 20
461.99999999993531
 30
0.0
 11
199.11742788881659
 21
461.99999999993531
 31
0.0
  0
LINE
  5
1D6
  8
DATA
  6
CONTINUOUS
 62
     7
 10
208.61742788881659
 20
461.99999999993531
 30
0.0
 11
209.36742788881659
 21
461.99999999993531
 31
0.0
  0
LINE
  5
1D7
  8
DATA
  6
CONTINUOUS
 62
     7
 10
198.36742788881659
 20
459.99999999993531
 30
0.0
 11
199.11742788881659
 21
459.99999999993531
 31
0.0
  0
LINE
  5
1D8
  8
DATA
  6
CONTINUOUS
 62
     7
 10
208.61742788881659
 20
459.99999999993531
 30
0.0
 11
209.36742788881659
 21
459.99999999993531
 31
0.0
  0
LINE
  5
1D9
  8
DATA
  6
CONTINUOUS
 62
     7
 10
196.16330036554891
 20
452.99999999993531
 30
0.0
 11
196.16330036554891
 21
447.99999999993531
 31
0.0
  0
LINE
  5
1DA
  8
DATA
  6
CONTINUOUS
 62
     7
 10
211.57155541208439
 20
452.99999999993531
 30
0.0
 11
211.57155541208439
 21
447.99999999993531
 31
0.0
  0
LINE
  5
1DB
  8
DATA
  6
CONTINUOUS
 62
     7
 10
189.61742788881659
 20
464.99999999993531
 30
0.0
 11
180.11742788881659
 21
464.99999999993531
 31
0.0
  0
LINE
  5
1DC
  8
DATA
  6
CONTINUOUS
 62
     7
 10
192.57155541208439
 20
452.99999999993531
 30
0.0
 11
177.16330036554899
 21
452.99999999993531
 31
0.0
  0
LINE
  5
1DD
  8
DATA
  6
CONTINUOUS
 62
     7
 10
180.11742788881659
 20
464.99999999993531
 30
0.0
 11
180.11742788881659
 21
452.99999999993531
 31
0.0
  0
LINE
  5
1DE
  8
DATA
  6
CONTINUOUS
 62
     7
 10
189.61742788881659
 20
464.99999999993531
 30
0.0
 11
189.61742788881659
 21
452.99999999993531
 31
0.0
  0
LINE
  5
1DF
  8
DATA
  6
CONTINUOUS
 62
     7
 10
179.36742788881659
 20
461.99999999993531
 30
0.0
 11
179.36742788881659
 21
459.99999999993531
 31
0.0
  0
LINE
  5
1E0
  8
DATA
  6
CONTINUOUS
 62
     7
 10
190.36742788881659
 20
461.99999999993531
 30
0.0
 11
190.36742788881659
 21
459.99999999993531
 31
0.0
  0
LINE
  5
1E1
  8
DATA
  6
CONTINUOUS
 62
     7
 10
179.36742788881659
 20
461.99999999993531
 30
0.0
 11
180.11742788881659
 21
461.99999999993531
 31
0.0
  0
LINE
  5
1E2
  8
DATA
  6
CONTINUOUS
 62
     7
 10
189.61742788881659
 20
461.99999999993531
 30
0.0
 11
190.36742788881659
 21
461.99999999993531
 31
0.0
  0
LINE
  5
1E3
  8
DATA
  6
CONTINUOUS
 62
     7
 10
179.36742788881659
 20
459.99999999993531
 30
0.0
 11
180.11742788881659
 21
459.99999999993531
 31
0.0
  0
LINE
  5
1E4
  8
DATA
  6
CONTINUOUS
 62
     7
 10
189.61742788881659
 20
459.99999999993531
 30
0.0
 11
190.36742788881659
 21
459.99999999993531
 31
0.0
  0
LINE
  5
1E5
  8
DATA
  6
CONTINUOUS
 62
     7
 10
177.16330036554899
 20
452.99999999993531
 30
0.0
 11
177.16330036554899
 21
447.99999999993531
 31
0.0
  0
LINE
  5
1E6
  8
DATA
  6
CONTINUOUS
 62
     7
 10
192.57155541208439
 20
452.99999999993531
 30
0.0
 11
192.57155541208439
 21
447.99999999993531
 31
0.0
  0
LINE
  5
1E7
  8
DATA
  6
CONTINUOUS
 62
     7
 10
170.61742788881659
 20
464.99999999993531
 30
0.0
 11
161.11742788881659
 21
464.99999999993531
 31
0.0
  0
LINE
  5
1E8
  8
DATA
  6
CONTINUOUS
 62
     7
 10
173.57155541208431
 20
452.99999999993531
 30
0.0
 11
158.16330036554899
 21
452.99999999993531
 31
0.0
  0
LINE
  5
1E9
  8
DATA
  6
CONTINUOUS
 62
     7
 10
161.11742788881659
 20
464.99999999993531
 30
0.0
 11
161.11742788881659
 21
452.99999999993531
 31
0.0
  0
LINE
  5
1EA
  8
DATA
  6
CONTINUOUS
 62
     7
 10
170.61742788881659
 20
464.99999999993531
 30
0.0
 11
170.61742788881659
 21
452.99999999993531
 31
0.0
  0
LINE
  5
1EB
  8
DATA
  6
CONTINUOUS
 62
     7
 10
160.36742788881659
 20
461.99999999993531
 30
0.0
 11
160.36742788881659
 21
459.99999999993531
 31
0.0
  0
LINE
  5
1EC
  8
DATA
  6
CONTINUOUS
 62
     7
 10
171.36742788881659
 20
461.99999999993531
 30
0.0
 11
171.36742788881659
 21
459.99999999993531
 31
0.0
  0
LINE
  5
1ED
  8
DATA
  6
CONTINUOUS
 62
     7
 10
160.36742788881659
 20
461.99999999993531
 30
0.0
 11
161.11742788881659
 21
461.99999999993531
 31
0.0
  0
LINE
  5
1EE
  8
DATA
  6
CONTINUOUS
 62
     7
 10
170.61742788881659
 20
461.99999999993531
 30
0.0
 11
171.36742788881659
 21
461.99999999993531
 31
0.0
  0
LINE
  5
1EF
  8
DATA
  6
CONTINUOUS
 62
     7
 10
160.36742788881659
 20
459.99999999993531
 30
0.0
 11
161.11742788881659
 21
459.99999999993531
 31
0.0
  0
LINE
  5
1F0
  8
DATA
  6
CONTINUOUS
 62
     7
 10
170.61742788881659
 20
459.99999999993531
 30
0.0
 11
171.36742788881659
 21
459.99999999993531
 31
0.0
  0
LINE
  5
1F1
  8
DATA
  6
CONTINUOUS
 62
     7
 10
158.16330036554899
 20
452.99999999993531
 30
0.0
 11
158.16330036554899
 21
447.99999999993531
 31
0.0
  0
LINE
  5
1F2
  8
DATA
  6
CONTINUOUS
 62
     7
 10
173.57155541208431
 20
452.99999999993531
 30
0.0
 11
173.57155541208431
 21
447.99999999993531
 31
0.0
  0
LINE
  5
1F3
  8
DATA
  6
CONTINUOUS
 62
     7
 10
250.9417465051217
 20
455.50000000021572
 30
0.0
 11
250.9417465051217
 21
448.0
 31
0.0
  0
LINE
  5
1F4
  8
DATA
  6
CONTINUOUS
 62
     7
 10
259.24174650512168
 20
455.50000000021572
 30
0.0
 11
259.24174650512168
 21
448.0
 31
0.0
  0
LINE
  5
1F5
  8
DATA
  6
CONTINUOUS
 62
     7
 10
250.9417465051217
 20
455.50000000021572
 30
0.0
 11
259.24174650512168
 21
455.50000000021572
 31
0.0
  0
CIRCLE
  5
1F6
  8
DATA
  6
CONTINUOUS
 62
     7
 10
273.86742788881668
 20
460.99999999993531
 30
0.0
 40
1.0
  0
LINE
  5
1F7
  8
DATA
  6
CONTINUOUS
 62
     7
 10
286.95371754070618
 20
454.0
 30
0.0
 11
294.73798066258593
 21
454.0
 31
0.0
  0
ARC
  5
1F8
  8
DATA
  6
CONTINUOUS
 62
     7
 10
350.04381314088158
 20
196.25
 30
0.0
 40
1.440000000000023
 50
91.743538563827954
 51
268.25646143617212
  0
LINE
  5
1F9
  8
DATA
  6
CONTINUOUS
 62
     7
 10
366.78671327802192
 20
177.25
 30
0.0
 11
368.03671327802192
 21
181.25
 31
0.0
  0
LINE
  5
1FA
  8
DATA
  6
CONTINUOUS
 62
     7
 10
357.28671327802209
 20
177.25
 30
0.0
 11
356.03671327802198
 21
181.25
 31
0.0
  0
LINE
  5
1FB
  8
DATA
  6
CONTINUOUS
 62
     7
 10
366.78671327802192
 20
177.25
 30
0.0
 11
357.28671327802209
 21
177.25
 31
0.0
  0
LINE
  5
1FC
  8
DATA
  6
CONTINUOUS
 62
     7
 10
506.21328672197802
 20
177.25
 30
0.0
 11
504.96328672197808
 21
181.25
 31
0.0
  0
LINE
  5
1FD
  8
DATA
  6
CONTINUOUS
 62
     7
 10
515.71328672197785
 20
177.25
 30
0.0
 11
516.96328672197785
 21
181.25
 31
0.0
  0
LINE
  5
1FE
  8
DATA
  6
CONTINUOUS
 62
     7
 10
506.21328672197802
 20
177.25
 30
0.0
 11
515.71328672197785
 21
177.25
 31
0.0
  0
LINE
  5
1FF
  8
DATA
  6
CONTINUOUS
 62
     7
 10
540.00000000022487
 20
194.06844572380541
 30
0.0
 11
540.00000000022487
 21
203.56844572380541
 31
0.0
  0
LINE
  5
200
  8
DATA
  6
CONTINUOUS
 62
     7
 10
528.00000000022465
 20
191.1143182005377
 30
0.0
 11
528.00000000022465
 21
194.9305756701682
 31
0.0
  0
LINE
  5
201
  8
DATA
  6
CONTINUOUS
 62
     7
 10
528.00000000022465
 20
202.714838792048
 30
0.0
 11
528.00000000022465
 21
206.5225732470731
 31
0.0
  0
LINE
  5
202
  8
DATA
  6
CONTINUOUS
 62
     7
 10
540.00000000022487
 20
203.56844572380541
 30
0.0
 11
528.00000000022465
 21
203.56844572380541
 31
0.0
  0
LINE
  5
203
  8
DATA
  6
CONTINUOUS
 62
     7
 10
540.00000000022487
 20
194.06844572380541
 30
0.0
 11
528.00000000022465
 21
194.06844572380541
 31
0.0
  0
LINE
  5
204
  8
DATA
  6
CONTINUOUS
 62
     7
 10
528.00000000022465
 20
206.5225732470731
 30
0.0
 11
523.00000000022465
 21
206.5225732470731
 31
0.0
  0
LINE
  5
205
  8
DATA
  6
CONTINUOUS
 62
     7
 10
528.00000000022465
 20
191.1143182005377
 30
0.0
 11
523.00000000022465
 21
191.1143182005377
 31
0.0
  0
LINE
  5
206
  8
DATA
  6
CONTINUOUS
 62
     7
 10
525.00000000015268
 20
204.06483879204799
 30
0.0
 11
523.0000000001528
 21
204.06483879204799
 31
0.0
  0
LINE
  5
207
  8
DATA
  6
CONTINUOUS
 62
     7
 10
525.00000000015268
 20
193.56483879204799
 30
0.0
 11
523.0000000001528
 21
193.56483879204799
 31
0.0
  0
LINE
  5
208
  8
DATA
  6
CONTINUOUS
 62
     7
 10
529.00000000015268
 20
202.714838792048
 30
0.0
 11
525.00000000015268
 21
202.714838792048
 31
0.0
  0
LINE
  5
209
  8
DATA
  6
CONTINUOUS
 62
     7
 10
529.00000000015268
 20
194.9305756701682
 30
0.0
 11
525.00000000015268
 21
194.9305756701682
 31
0.0
  0
LINE
  5
20A
  8
DATA
  6
CONTINUOUS
 62
     7
 10
525.00000000015268
 20
204.06483879204799
 30
0.0
 11
525.00000000015268
 21
193.56483879204799
 31
0.0
  0
LINE
  5
20B
  8
DATA
  6
CONTINUOUS
 62
     7
 10
529.00000000015268
 20
202.714838792048
 30
0.0
 11
529.00000000015268
 21
194.9305756701682
 31
0.0
  0
POLYLINE
  5
20C
  8
DATA
  6
CONTINUOUS
 62
     7
 66
     1
 10
0.0
 20
0.0
 30
0.0
  0
VERTEX
  5
48F
  8
DATA
  6
CONTINUOUS
 62
     7
 10
535.00000000022465
 20
203.56844572380541
 30
0.0
  0
VERTEX
  5
490
  8
DATA
  6
CONTINUOUS
 62
     7
 10
535.00000000022465
 20
204.25
 30
0.0
  0
VERTEX
  5
491
  8
DATA
  6
CONTINUOUS
 62
     7
 10
537.00000000022476
 20
204.25
 30
0.0
  0
VERTEX
  5
492
  8
DATA
  6
CONTINUOUS
 62
     7
 10
537.00000000022476
 20
203.56844572380541
 30
0.0
  0
SEQEND
  5
493
  8
DATA
  6
CONTINUOUS
 62
     7
  0
POLYLINE
  5
213
  8
DATA
  6
CONTINUOUS
 62
     7
 66
     1
 10
0.0
 20
0.0
 30
0.0
  0
VERTEX
  5
494
  8
DATA
  6
CONTINUOUS
 62
     7
 10
537.00000000022476
 20
194.06844572380541
 30
0.0
  0
VERTEX
  5
495
  8
DATA
  6
CONTINUOUS
 62
     7
 10
537.00000000022476
 20
193.25
 30
0.0
  0
VERTEX
  5
496
  8
DATA
  6
CONTINUOUS
 62
     7
 10
535.00000000022465
 20
193.25
 30
0.0
  0
VERTEX
  5
497
  8
DATA
  6
CONTINUOUS
 62
     7
 10
535.00000000022465
 20
194.06844572380541
 30
0.0
  0
SEQEND
  5
498
  8
DATA
  6
CONTINUOUS
 62
     7
  0
LINE
  5
21A
  8
DATA
  6
CONTINUOUS
 62
     7
 10
526.99999999990882
 20
209.30576470464939
 30
0.0
 11
523.0
 21
209.30576470464939
 31
0.0
  0
LINE
  5
21B
  8
DATA
  6
CONTINUOUS
 62
     7
 10
523.0
 20
214.50576470464949
 30
0.0
 11
526.99999999990882
 21
214.50576470464949
 31
0.0
  0
LINE
  5
21C
  8
DATA
  6
CONTINUOUS
 62
     7
 10
526.99999999990882
 20
207.90576470464941
 30
0.0
 11
523.0
 21
207.90576470464941
 31
0.0
  0
LINE
  5
21D
  8
DATA
  6
CONTINUOUS
 62
     7
 10
523.0
 20
215.90576470464941
 30
0.0
 11
526.99999999990882
 21
215.90576470464941
 31
0.0
  0
LINE
  5
21E
  8
DATA
  6
CONTINUOUS
 62
     7
 10
526.99999999990882
 20
215.90576470464941
 30
0.0
 11
526.99999999990882
 21
207.90576470464941
 31
0.0
  0
CIRCLE
  5
21F
  8
DATA
  6
CONTINUOUS
 62
     7
 10
364.0
 20
187.25
 30
0.0
 40
2.5
  0
LINE
  5
220
  8
DATA
  6
CONTINUOUS
 62
     7
 10
362.69903881687429
 20
187.25
 30
0.0
 11
365.30096118312582
 21
187.25
 31
0.0
  0
LINE
  5
221
  8
DATA
  6
CONTINUOUS
 62
     7
 10
364.0
 20
185.94903881687421
 30
0.0
 11
364.0
 21
188.55096118312579
 31
0.0
  0
CIRCLE
  5
222
  8
DATA
  6
CONTINUOUS
 62
     7
 10
434.0
 20
187.25
 30
0.0
 40
2.5
  0
LINE
  5
223
  8
DATA
  6
CONTINUOUS
 62
     7
 10
432.69903881687418
 20
187.25
 30
0.0
 11
435.30096118312571
 21
187.25
 31
0.0
  0
LINE
  5
224
  8
DATA
  6
CONTINUOUS
 62
     7
 10
434.0
 20
185.94903881687421
 30
0.0
 11
434.0
 21
188.55096118312579
 31
0.0
  0
CIRCLE
  5
225
  8
DATA
  6
CONTINUOUS
 62
     7
 10
504.0
 20
187.25
 30
0.0
 40
2.5
  0
LINE
  5
226
  8
DATA
  6
CONTINUOUS
 62
     7
 10
502.69903881687418
 20
187.25
 30
0.0
 11
505.30096118312571
 21
187.25
 31
0.0
  0
LINE
  5
227
  8
DATA
  6
CONTINUOUS
 62
     7
 10
504.0
 20
185.94903881687421
 30
0.0
 11
504.0
 21
188.55096118312579
 31
0.0
  0
CIRCLE
  5
228
  8
DATA
  6
CONTINUOUS
 62
     7
 10
364.0
 20
217.25
 30
0.0
 40
2.5
  0
LINE
  5
229
  8
DATA
  6
CONTINUOUS
 62
     7
 10
362.69903881687429
 20
217.25
 30
0.0
 11
365.30096118312582
 21
217.25
 31
0.0
  0
LINE
  5
22A
  8
DATA
  6
CONTINUOUS
 62
     7
 10
364.0
 20
215.94903881687421
 30
0.0
 11
364.0
 21
218.55096118312579
 31
0.0
  0
CIRCLE
  5
22B
  8
DATA
  6
CONTINUOUS
 62
     7
 10
380.02008223301812
 20
213.7362987941911
 30
0.0
 40
1.6749999999999969
  0
CIRCLE
  5
22C
  8
DATA
  6
CONTINUOUS
 62
     7
 10
388.02008223301812
 20
213.7362987941911
 30
0.0
 40
1.6749999999999969
  0
CIRCLE
  5
22D
  8
DATA
  6
CONTINUOUS
 62
     7
 10
396.02008223301812
 20
213.7362987941911
 30
0.0
 40
1.6749999999999969
  0
CIRCLE
  5
22E
  8
DATA
  6
CONTINUOUS
 62
     7
 10
404.020082233018
 20
213.7362987941911
 30
0.0
 40
1.6749999999999969
  0
CIRCLE
  5
22F
  8
DATA
  6
CONTINUOUS
 62
     7
 10
412.020082233018
 20
213.7362987941911
 30
0.0
 40
1.6749999999999969
  0
CIRCLE
  5
230
  8
DATA
  6
CONTINUOUS
 62
     7
 10
420.0200822330176
 20
213.7362987941911
 30
0.0
 40
1.674999999999869
  0
CIRCLE
  5
231
  8
DATA
  6
CONTINUOUS
 62
     7
 10
428.02008223301709
 20
213.7362987941911
 30
0.0
 40
1.6750000000000109
  0
CIRCLE
  5
232
  8
DATA
  6
CONTINUOUS
 62
     7
 10
436.02008223301709
 20
213.7362987941911
 30
0.0
 40
1.6750000000000109
  0
CIRCLE
  5
233
  8
DATA
  6
CONTINUOUS
 62
     7
 10
444.02008223301709
 20
213.7362987941911
 30
0.0
 40
1.6750000000000109
  0
CIRCLE
  5
234
  8
DATA
  6
CONTINUOUS
 62
     7
 10
452.02008223301709
 20
213.7362987941911
 30
0.0
 40
1.6750000000000109
  0
CIRCLE
  5
235
  8
DATA
  6
CONTINUOUS
 62
     7
 10
460.02008223301721
 20
213.7362987941911
 30
0.0
 40
1.6750000000000109
  0
CIRCLE
  5
236
  8
DATA
  6
CONTINUOUS
 62
     7
 10
468.02008223301721
 20
213.7362987941911
 30
0.0
 40
1.6750000000000109
  0
CIRCLE
  5
237
  8
DATA
  6
CONTINUOUS
 62
     7
 10
380.02008223301812
 20
209.7362987941911
 30
0.0
 40
1.6749999999999969
  0
CIRCLE
  5
238
  8
DATA
  6
CONTINUOUS
 62
     7
 10
388.02008223301812
 20
209.7362987941911
 30
0.0
 40
1.6749999999999969
  0
CIRCLE
  5
239
  8
DATA
  6
CONTINUOUS
 62
     7
 10
396.02008223301812
 20
209.7362987941911
 30
0.0
 40
1.6749999999999969
  0
CIRCLE
  5
23A
  8
DATA
  6
CONTINUOUS
 62
     7
 10
404.020082233018
 20
209.7362987941911
 30
0.0
 40
1.6749999999999969
  0
CIRCLE
  5
23B
  8
DATA
  6
CONTINUOUS
 62
     7
 10
412.020082233018
 20
209.7362987941911
 30
0.0
 40
1.6749999999999969
  0
CIRCLE
  5
23C
  8
DATA
  6
CONTINUOUS
 62
     7
 10
420.0200822330176
 20
209.7362987941911
 30
0.0
 40
1.674999999999869
  0
CIRCLE
  5
23D
  8
DATA
  6
CONTINUOUS
 62
     7
 10
428.02008223301709
 20
209.7362987941911
 30
0.0
 40
1.6750000000000109
  0
CIRCLE
  5
23E
  8
DATA
  6
CONTINUOUS
 62
     7
 10
436.02008223301709
 20
209.7362987941911
 30
0.0
 40
1.6750000000000109
  0
CIRCLE
  5
23F
  8
DATA
  6
CONTINUOUS
 62
     7
 10
444.02008223301709
 20
209.7362987941911
 30
0.0
 40
1.6750000000000109
  0
CIRCLE
  5
240
  8
DATA
  6
CONTINUOUS
 62
     7
 10
452.02008223301709
 20
209.7362987941911
 30
0.0
 40
1.6750000000000109
  0
CIRCLE
  5
241
  8
DATA
  6
CONTINUOUS
 62
     7
 10
460.02008223301721
 20
209.7362987941911
 30
0.0
 40
1.6750000000000109
  0
CIRCLE
  5
242
  8
DATA
  6
CONTINUOUS
 62
     7
 10
468.02008223301721
 20
209.7362987941911
 30
0.0
 40
1.6750000000000109
  0
CIRCLE
  5
243
  8
DATA
  6
CONTINUOUS
 62
     7
 10
380.02008223301812
 20
205.7362987941911
 30
0.0
 40
1.6749999999999969
  0
CIRCLE
  5
244
  8
DATA
  6
CONTINUOUS
 62
     7
 10
388.02008223301812
 20
205.7362987941911
 30
0.0
 40
1.6749999999999969
  0
CIRCLE
  5
245
  8
DATA
  6
CONTINUOUS
 62
     7
 10
396.02008223301812
 20
205.7362987941911
 30
0.0
 40
1.6749999999999969
  0
CIRCLE
  5
246
  8
DATA
  6
CONTINUOUS
 62
     7
 10
404.020082233018
 20
205.7362987941911
 30
0.0
 40
1.6749999999999969
  0
CIRCLE
  5
247
  8
DATA
  6
CONTINUOUS
 62
     7
 10
412.020082233018
 20
205.7362987941911
 30
0.0
 40
1.6749999999999969
  0
CIRCLE
  5
248
  8
DATA
  6
CONTINUOUS
 62
     7
 10
420.0200822330176
 20
205.7362987941911
 30
0.0
 40
1.674999999999869
  0
CIRCLE
  5
249
  8
DATA
  6
CONTINUOUS
 62
     7
 10
428.02008223301709
 20
205.7362987941911
 30
0.0
 40
1.6750000000000109
  0
CIRCLE
  5
24A
  8
DATA
  6
CONTINUOUS
 62
     7
 10
436.02008223301709
 20
205.7362987941911
 30
0.0
 40
1.6750000000000109
  0
CIRCLE
  5
24B
  8
DATA
  6
CONTINUOUS
 62
     7
 10
444.02008223301709
 20
205.7362987941911
 30
0.0
 40
1.6750000000000109
  0
CIRCLE
  5
24C
  8
DATA
  6
CONTINUOUS
 62
     7
 10
452.02008223301709
 20
205.7362987941911
 30
0.0
 40
1.6750000000000109
  0
CIRCLE
  5
24D
  8
DATA
  6
CONTINUOUS
 62
     7
 10
460.02008223301721
 20
205.7362987941911
 30
0.0
 40
1.6750000000000109
  0
CIRCLE
  5
24E
  8
DATA
  6
CONTINUOUS
 62
     7
 10
468.02008223301721
 20
205.7362987941911
 30
0.0
 40
1.6750000000000109
  0
CIRCLE
  5
24F
  8
DATA
  6
CONTINUOUS
 62
     7
 10
380.02008223301812
 20
201.7362987941911
 30
0.0
 40
1.6749999999999969
  0
CIRCLE
  5
250
  8
DATA
  6
CONTINUOUS
 62
     7
 10
388.02008223301812
 20
201.7362987941911
 30
0.0
 40
1.6749999999999969
  0
CIRCLE
  5
251
  8
DATA
  6
CONTINUOUS
 62
     7
 10
396.02008223301812
 20
201.7362987941911
 30
0.0
 40
1.6749999999999969
  0
CIRCLE
  5
252
  8
DATA
  6
CONTINUOUS
 62
     7
 10
404.020082233018
 20
201.7362987941911
 30
0.0
 40
1.6749999999999969
  0
CIRCLE
  5
253
  8
DATA
  6
CONTINUOUS
 62
     7
 10
412.020082233018
 20
201.7362987941911
 30
0.0
 40
1.6749999999999969
  0
CIRCLE
  5
254
  8
DATA
  6
CONTINUOUS
 62
     7
 10
420.0200822330176
 20
201.7362987941911
 30
0.0
 40
1.674999999999869
  0
CIRCLE
  5
255
  8
DATA
  6
CONTINUOUS
 62
     7
 10
428.02008223301709
 20
201.7362987941911
 30
0.0
 40
1.6750000000000109
  0
CIRCLE
  5
256
  8
DATA
  6
CONTINUOUS
 62
     7
 10
436.02008223301709
 20
201.7362987941911
 30
0.0
 40
1.6750000000000109
  0
CIRCLE
  5
257
  8
DATA
  6
CONTINUOUS
 62
     7
 10
444.02008223301709
 20
201.7362987941911
 30
0.0
 40
1.6750000000000109
  0
CIRCLE
  5
258
  8
DATA
  6
CONTINUOUS
 62
     7
 10
452.02008223301709
 20
201.7362987941911
 30
0.0
 40
1.6750000000000109
  0
CIRCLE
  5
259
  8
DATA
  6
CONTINUOUS
 62
     7
 10
460.02008223301721
 20
201.7362987941911
 30
0.0
 40
1.6750000000000109
  0
CIRCLE
  5
25A
  8
DATA
  6
CONTINUOUS
 62
     7
 10
468.02008223301721
 20
201.7362987941911
 30
0.0
 40
1.6750000000000109
  0
CIRCLE
  5
25B
  8
DATA
  6
CONTINUOUS
 62
     7
 10
376.02008223301812
 20
211.7362987941911
 30
0.0
 40
1.6749999999999969
  0
CIRCLE
  5
25C
  8
DATA
  6
CONTINUOUS
 62
     7
 10
376.02008223301812
 20
207.7362987941911
 30
0.0
 40
1.6749999999999969
  0
CIRCLE
  5
25D
  8
DATA
  6
CONTINUOUS
 62
     7
 10
376.02008223301812
 20
203.7362987941911
 30
0.0
 40
1.6749999999999969
  0
CIRCLE
  5
25E
  8
DATA
  6
CONTINUOUS
 62
     7
 10
384.02008223301812
 20
211.7362987941911
 30
0.0
 40
1.6749999999999969
  0
CIRCLE
  5
25F
  8
DATA
  6
CONTINUOUS
 62
     7
 10
384.02008223301812
 20
207.7362987941911
 30
0.0
 40
1.6749999999999969
  0
CIRCLE
  5
260
  8
DATA
  6
CONTINUOUS
 62
     7
 10
384.02008223301812
 20
203.7362987941911
 30
0.0
 40
1.6749999999999969
  0
CIRCLE
  5
261
  8
DATA
  6
CONTINUOUS
 62
     7
 10
392.02008223301812
 20
211.7362987941911
 30
0.0
 40
1.6749999999999969
  0
CIRCLE
  5
262
  8
DATA
  6
CONTINUOUS
 62
     7
 10
392.02008223301812
 20
207.7362987941911
 30
0.0
 40
1.6749999999999969
  0
CIRCLE
  5
263
  8
DATA
  6
CONTINUOUS
 62
     7
 10
392.02008223301812
 20
203.7362987941911
 30
0.0
 40
1.6749999999999969
  0
CIRCLE
  5
264
  8
DATA
  6
CONTINUOUS
 62
     7
 10
400.020082233018
 20
211.7362987941911
 30
0.0
 40
1.6749999999999969
  0
CIRCLE
  5
265
  8
DATA
  6
CONTINUOUS
 62
     7
 10
400.020082233018
 20
207.7362987941911
 30
0.0
 40
1.6749999999999969
  0
CIRCLE
  5
266
  8
DATA
  6
CONTINUOUS
 62
     7
 10
400.020082233018
 20
203.7362987941911
 30
0.0
 40
1.6749999999999969
  0
CIRCLE
  5
267
  8
DATA
  6
CONTINUOUS
 62
     7
 10
408.020082233018
 20
211.7362987941911
 30
0.0
 40
1.6749999999999969
  0
CIRCLE
  5
268
  8
DATA
  6
CONTINUOUS
 62
     7
 10
408.020082233018
 20
207.7362987941911
 30
0.0
 40
1.6749999999999969
  0
CIRCLE
  5
269
  8
DATA
  6
CONTINUOUS
 62
     7
 10
408.020082233018
 20
203.7362987941911
 30
0.0
 40
1.6749999999999969
  0
CIRCLE
  5
26A
  8
DATA
  6
CONTINUOUS
 62
     7
 10
416.020082233018
 20
211.7362987941911
 30
0.0
 40
1.674999999999869
  0
CIRCLE
  5
26B
  8
DATA
  6
CONTINUOUS
 62
     7
 10
416.020082233018
 20
207.7362987941911
 30
0.0
 40
1.674999999999869
  0
CIRCLE
  5
26C
  8
DATA
  6
CONTINUOUS
 62
     7
 10
416.020082233018
 20
203.7362987941911
 30
0.0
 40
1.674999999999869
  0
CIRCLE
  5
26D
  8
DATA
  6
CONTINUOUS
 62
     7
 10
424.02008223301772
 20
211.7362987941911
 30
0.0
 40
1.674999999999883
  0
CIRCLE
  5
26E
  8
DATA
  6
CONTINUOUS
 62
     7
 10
424.02008223301772
 20
207.7362987941911
 30
0.0
 40
1.674999999999883
  0
CIRCLE
  5
26F
  8
DATA
  6
CONTINUOUS
 62
     7
 10
424.02008223301772
 20
203.7362987941911
 30
0.0
 40
1.674999999999883
  0
CIRCLE
  5
270
  8
DATA
  6
CONTINUOUS
 62
     7
 10
432.02008223301709
 20
211.7362987941911
 30
0.0
 40
1.6750000000000109
  0
CIRCLE
  5
271
  8
DATA
  6
CONTINUOUS
 62
     7
 10
432.02008223301709
 20
207.7362987941911
 30
0.0
 40
1.6750000000000109
  0
CIRCLE
  5
272
  8
DATA
  6
CONTINUOUS
 62
     7
 10
432.02008223301709
 20
203.7362987941911
 30
0.0
 40
1.6750000000000109
  0
CIRCLE
  5
273
  8
DATA
  6
CONTINUOUS
 62
     7
 10
440.02008223301709
 20
211.7362987941911
 30
0.0
 40
1.6750000000000109
  0
CIRCLE
  5
274
  8
DATA
  6
CONTINUOUS
 62
     7
 10
440.02008223301709
 20
207.7362987941911
 30
0.0
 40
1.6750000000000109
  0
CIRCLE
  5
275
  8
DATA
  6
CONTINUOUS
 62
     7
 10
440.02008223301709
 20
203.7362987941911
 30
0.0
 40
1.6750000000000109
  0
CIRCLE
  5
276
  8
DATA
  6
CONTINUOUS
 62
     7
 10
448.02008223301709
 20
211.7362987941911
 30
0.0
 40
1.6750000000000109
  0
CIRCLE
  5
277
  8
DATA
  6
CONTINUOUS
 62
     7
 10
448.02008223301709
 20
207.7362987941911
 30
0.0
 40
1.6750000000000109
  0
CIRCLE
  5
278
  8
DATA
  6
CONTINUOUS
 62
     7
 10
448.02008223301709
 20
203.7362987941911
 30
0.0
 40
1.6750000000000109
  0
CIRCLE
  5
279
  8
DATA
  6
CONTINUOUS
 62
     7
 10
456.02008223301709
 20
211.7362987941911
 30
0.0
 40
1.6750000000000109
  0
CIRCLE
  5
27A
  8
DATA
  6
CONTINUOUS
 62
     7
 10
456.02008223301709
 20
207.7362987941911
 30
0.0
 40
1.6750000000000109
  0
CIRCLE
  5
27B
  8
DATA
  6
CONTINUOUS
 62
     7
 10
456.02008223301709
 20
203.7362987941911
 30
0.0
 40
1.6750000000000109
  0
CIRCLE
  5
27C
  8
DATA
  6
CONTINUOUS
 62
     7
 10
464.02008223301721
 20
211.7362987941911
 30
0.0
 40
1.6750000000000109
  0
CIRCLE
  5
27D
  8
DATA
  6
CONTINUOUS
 62
     7
 10
464.02008223301721
 20
207.7362987941911
 30
0.0
 40
1.6750000000000109
  0
CIRCLE
  5
27E
  8
DATA
  6
CONTINUOUS
 62
     7
 10
464.02008223301721
 20
203.7362987941911
 30
0.0
 40
1.6750000000000109
  0
CIRCLE
  5
27F
  8
DATA
  6
CONTINUOUS
 62
     7
 10
242.03365813177359
 20
531.26612281460757
 30
0.0
 40
4.1499999999999986
  0
CIRCLE
  5
280
  8
DATA
  6
CONTINUOUS
 62
     7
 10
242.03365813177359
 20
531.26612281460757
 30
0.0
 40
1.75
  0
TEXT
  5
281
  8
DATA
 62
     7
 10
252.98418066402411
 20
521.52966712677573
 30
0.0
 40
2.4432617187500001
  1
Audio
 50
180.0
 41
0.7
 11
252.98418066402411
 21
519.08640540802571
 31
0.0
 73
     3
  0
TEXT
  5
282
  8
DATA
 62
     7
 10
242.53100253664431
 20
544.43231076136374
 30
0.0
 40
2.4432617187500001
  1
R
 50
180.0
 41
0.7
 11
242.53100253664431
 21
541.98904904261371
 31
0.0
 73
     3
  0
LINE
  5
283
  8
DATA
  6
CONTINUOUS
 62
     7
 10
237.9417465051217
 20
455.50000000021572
 30
0.0
 11
237.9417465051217
 21
448.0
 31
0.0
  0
LINE
  5
284
  8
DATA
  6
CONTINUOUS
 62
     7
 10
246.24174650512171
 20
455.50000000021572
 30
0.0
 11
246.24174650512171
 21
448.0
 31
0.0
  0
LINE
  5
285
  8
DATA
  6
CONTINUOUS
 62
     7
 10
237.9417465051217
 20
455.50000000021572
 30
0.0
 11
246.24174650512171
 21
455.50000000021572
 31
0.0
  0
CIRCLE
  5
286
  8
DATA
  6
CONTINUOUS
 62
     7
 10
151.2152562914851
 20
533.87067472815966
 30
0.0
 40
1.175000000000068
  0
POLYLINE
  5
287
  8
DATA
  6
CONTINUOUS
 62
     7
 66
     1
 10
0.0
 20
0.0
 30
0.0
 70
     1
  0
VERTEX
  5
499
  8
DATA
  6
CONTINUOUS
 62
     7
 10
151.2152562914851
 20
531.17067472815984
 30
0.0
  0
VERTEX
  5
49A
  8
DATA
  6
CONTINUOUS
 62
     7
 10
153.553524881703
 20
532.52067472815986
 30
0.0
  0
VERTEX
  5
49B
  8
DATA
  6
CONTINUOUS
 62
     7
 10
153.553524881703
 20
535.22067472815968
 30
0.0
  0
VERTEX
  5
49C
  8
DATA
  6
CONTINUOUS
 62
     7
 10
151.2152562914851
 20
536.57067472815982
 30
0.0
  0
VERTEX
  5
49D
  8
DATA
  6
CONTINUOUS
 62
     7
 10
148.87698770126701
 20
535.22067472815968
 30
0.0
  0
VERTEX
  5
49E
  8
DATA
  6
CONTINUOUS
 62
     7
 10
148.87698770126701
 20
532.52067472815986
 30
0.0
  0
SEQEND
  5
49F
  8
DATA
  6
CONTINUOUS
 62
     7
  0
CIRCLE
  5
290
  8
DATA
  6
CONTINUOUS
 62
     7
 10
118.71525629148449
 20
533.87067472815966
 30
0.0
 40
1.175000000000068
  0
POLYLINE
  5
291
  8
DATA
  6
CONTINUOUS
 62
     7
 66
     1
 10
0.0
 20
0.0
 30
0.0
 70
     1
  0
VERTEX
  5
4A0
  8
DATA
  6
CONTINUOUS
 62
     7
 10
118.71525629148449
 20
531.17067472815984
 30
0.0
  0
VERTEX
  5
4A1
  8
DATA
  6
CONTINUOUS
 62
     7
 10
121.0535248817025
 20
532.52067472815986
 30
0.0
  0
VERTEX
  5
4A2
  8
DATA
  6
CONTINUOUS
 62
     7
 10
121.0535248817025
 20
535.22067472815968
 30
0.0
  0
VERTEX
  5
4A3
  8
DATA
  6
CONTINUOUS
 62
     7
 10
118.71525629148449
 20
536.57067472815982
 30
0.0
  0
VERTEX
  5
4A4
  8
DATA
  6
CONTINUOUS
 62
     7
 10
116.3769877012665
 20
535.22067472815968
 30
0.0
  0
VERTEX
  5
4A5
  8
DATA
  6
CONTINUOUS
 62
     7
 10
116.3769877012665
 20
532.52067472815986
 30
0.0
  0
SEQEND
  5
4A6
  8
DATA
  6
CONTINUOUS
 62
     7
  0
LINE
  5
29A
  8
DATA
  6
CONTINUOUS
 62
     7
 10
145.9151611786767
 20
529.94567472815982
 30
0.0
 11
124.0153514042926
 21
529.94567472815982
 31
0.0
  0
LINE
  5
29B
  8
DATA
  6
CONTINUOUS
 62
     7
 10
124.57426860174481
 20
537.79567472815984
 30
0.0
 11
145.3562439812244
 21
537.79567472815984
 31
0.0
  0
POLYLINE
  5
29C
  8
DATA
  6
CONTINUOUS
 62
     7
 66
     1
 10
0.0
 20
0.0
 30
0.0
 70
     1
  0
VERTEX
  5
4A7
  8
DATA
  6
CONTINUOUS
 62
     7
 10
144.43532246266429
 20
534.63567472815976
 30
0.0
  0
VERTEX
  5
4A8
  8
DATA
  6
CONTINUOUS
 62
     7
 10
145.96532246266429
 20
534.63567472815976
 30
0.0
  0
VERTEX
  5
4A9
  8
DATA
  6
CONTINUOUS
 62
     7
 10
145.96532246266429
 20
533.10567472815956
 30
0.0
  0
VERTEX
  5
4AA
  8
DATA
  6
CONTINUOUS
 62
     7
 10
144.43532246266429
 20
533.10567472815956
 30
0.0
  0
SEQEND
  5
4AB
  8
DATA
  6
CONTINUOUS
 62
     7
  0
POLYLINE
  5
2A3
  8
DATA
  6
CONTINUOUS
 62
     7
 66
     1
 10
0.0
 20
0.0
 30
0.0
 70
     1
  0
VERTEX
  5
4AC
  8
DATA
  6
CONTINUOUS
 62
     7
 10
142.43532246266429
 20
534.63567472815976
 30
0.0
  0
VERTEX
  5
4AD
  8
DATA
  6
CONTINUOUS
 62
     7
 10
143.96532246266429
 20
534.63567472815976
 30
0.0
  0
VERTEX
  5
4AE
  8
DATA
  6
CONTINUOUS
 62
     7
 10
143.96532246266429
 20
533.10567472815956
 30
0.0
  0
VERTEX
  5
4AF
  8
DATA
  6
CONTINUOUS
 62
     7
 10
142.43532246266429
 20
533.10567472815956
 30
0.0
  0
SEQEND
  5
4B0
  8
DATA
  6
CONTINUOUS
 62
     7
  0
POLYLINE
  5
2AA
  8
DATA
  6
CONTINUOUS
 62
     7
 66
     1
 10
0.0
 20
0.0
 30
0.0
 70
     1
  0
VERTEX
  5
4B1
  8
DATA
  6
CONTINUOUS
 62
     7
 10
140.43532246266429
 20
534.63567472815976
 30
0.0
  0
VERTEX
  5
4B2
  8
DATA
  6
CONTINUOUS
 62
     7
 10
141.96532246266429
 20
534.63567472815976
 30
0.0
  0
VERTEX
  5
4B3
  8
DATA
  6
CONTINUOUS
 62
     7
 10
141.96532246266429
 20
533.10567472815956
 30
0.0
  0
VERTEX
  5
4B4
  8
DATA
  6
CONTINUOUS
 62
     7
 10
140.43532246266429
 20
533.10567472815956
 30
0.0
  0
SEQEND
  5
4B5
  8
DATA
  6
CONTINUOUS
 62
     7
  0
POLYLINE
  5
2B1
  8
DATA
  6
CONTINUOUS
 62
     7
 66
     1
 10
0.0
 20
0.0
 30
0.0
 70
     1
  0
VERTEX
  5
4B6
  8
DATA
  6
CONTINUOUS
 62
     7
 10
138.43532246266429
 20
534.63567472815976
 30
0.0
  0
VERTEX
  5
4B7
  8
DATA
  6
CONTINUOUS
 62
     7
 10
139.96532246266429
 20
534.63567472815976
 30
0.0
  0
VERTEX
  5
4B8
  8
DATA
  6
CONTINUOUS
 62
     7
 10
139.96532246266429
 20
533.10567472815956
 30
0.0
  0
VERTEX
  5
4B9
  8
DATA
  6
CONTINUOUS
 62
     7
 10
138.43532246266429
 20
533.10567472815956
 30
0.0
  0
SEQEND
  5
4BA
  8
DATA
  6
CONTINUOUS
 62
     7
  0
POLYLINE
  5
2B8
  8
DATA
  6
CONTINUOUS
 62
     7
 66
     1
 10
0.0
 20
0.0
 30
0.0
 70
     1
  0
VERTEX
  5
4BB
  8
DATA
  6
CONTINUOUS
 62
     7
 10
136.4353224626642
 20
534.63567472815976
 30
0.0
  0
VERTEX
  5
4BC
  8
DATA
  6
CONTINUOUS
 62
     7
 10
137.96532246266429
 20
534.63567472815976
 30
0.0
  0
VERTEX
  5
4BD
  8
DATA
  6
CONTINUOUS
 62
     7
 10
137.96532246266429
 20
533.10567472815956
 30
0.0
  0
VERTEX
  5
4BE
  8
DATA
  6
CONTINUOUS
 62
     7
 10
136.4353224626642
 20
533.10567472815956
 30
0.0
  0
SEQEND
  5
4BF
  8
DATA
  6
CONTINUOUS
 62
     7
  0
POLYLINE
  5
2BF
  8
DATA
  6
CONTINUOUS
 62
     7
 66
     1
 10
0.0
 20
0.0
 30
0.0
 70
     1
  0
VERTEX
  5
4C0
  8
DATA
  6
CONTINUOUS
 62
     7
 10
134.435322462664
 20
534.63567472815976
 30
0.0
  0
VERTEX
  5
4C1
  8
DATA
  6
CONTINUOUS
 62
     7
 10
135.96532246266409
 20
534.63567472815976
 30
0.0
  0
VERTEX
  5
4C2
  8
DATA
  6
CONTINUOUS
 62
     7
 10
135.96532246266409
 20
533.10567472815956
 30
0.0
  0
VERTEX
  5
4C3
  8
DATA
  6
CONTINUOUS
 62
     7
 10
134.435322462664
 20
533.10567472815956
 30
0.0
  0
SEQEND
  5
4C4
  8
DATA
  6
CONTINUOUS
 62
     7
  0
POLYLINE
  5
2C6
  8
DATA
  6
CONTINUOUS
 62
     7
 66
     1
 10
0.0
 20
0.0
 30
0.0
 70
     1
  0
VERTEX
  5
4C5
  8
DATA
  6
CONTINUOUS
 62
     7
 10
132.43532246266389
 20
534.63567472815976
 30
0.0
  0
VERTEX
  5
4C6
  8
DATA
  6
CONTINUOUS
 62
     7
 10
133.96532246266401
 20
534.63567472815976
 30
0.0
  0
VERTEX
  5
4C7
  8
DATA
  6
CONTINUOUS
 62
     7
 10
133.96532246266401
 20
533.10567472815956
 30
0.0
  0
VERTEX
  5
4C8
  8
DATA
  6
CONTINUOUS
 62
     7
 10
132.43532246266389
 20
533.10567472815956
 30
0.0
  0
SEQEND
  5
4C9
  8
DATA
  6
CONTINUOUS
 62
     7
  0
POLYLINE
  5
2CD
  8
DATA
  6
CONTINUOUS
 62
     7
 66
     1
 10
0.0
 20
0.0
 30
0.0
 70
     1
  0
VERTEX
  5
4CA
  8
DATA
  6
CONTINUOUS
 62
     7
 10
130.43532246266381
 20
534.63567472815976
 30
0.0
  0
VERTEX
  5
4CB
  8
DATA
  6
CONTINUOUS
 62
     7
 10
131.96532246266389
 20
534.63567472815976
 30
0.0
  0
VERTEX
  5
4CC
  8
DATA
  6
CONTINUOUS
 62
     7
 10
131.96532246266389
 20
533.10567472815956
 30
0.0
  0
VERTEX
  5
4CD
  8
DATA
  6
CONTINUOUS
 62
     7
 10
130.43532246266381
 20
533.10567472815956
 30
0.0
  0
SEQEND
  5
4CE
  8
DATA
  6
CONTINUOUS
 62
     7
  0
POLYLINE
  5
2D4
  8
DATA
  6
CONTINUOUS
 62
     7
 66
     1
 10
0.0
 20
0.0
 30
0.0
 70
     1
  0
VERTEX
  5
4CF
  8
DATA
  6
CONTINUOUS
 62
     7
 10
144.43532246266429
 20
532.63567472815976
 30
0.0
  0
VERTEX
  5
4D0
  8
DATA
  6
CONTINUOUS
 62
     7
 10
145.96532246266429
 20
532.63567472815976
 30
0.0
  0
VERTEX
  5
4D1
  8
DATA
  6
CONTINUOUS
 62
     7
 10
145.96532246266429
 20
531.10567472815956
 30
0.0
  0
VERTEX
  5
4D2
  8
DATA
  6
CONTINUOUS
 62
     7
 10
144.43532246266429
 20
531.10567472815956
 30
0.0
  0
SEQEND
  5
4D3
  8
DATA
  6
CONTINUOUS
 62
     7
  0
POLYLINE
  5
2DB
  8
DATA
  6
CONTINUOUS
 62
     7
 66
     1
 10
0.0
 20
0.0
 30
0.0
 70
     1
  0
VERTEX
  5
4D4
  8
DATA
  6
CONTINUOUS
 62
     7
 10
142.43532246266429
 20
532.63567472815976
 30
0.0
  0
VERTEX
  5
4D5
  8
DATA
  6
CONTINUOUS
 62
     7
 10
143.96532246266429
 20
532.63567472815976
 30
0.0
  0
VERTEX
  5
4D6
  8
DATA
  6
CONTINUOUS
 62
     7
 10
143.96532246266429
 20
531.10567472815956
 30
0.0
  0
VERTEX
  5
4D7
  8
DATA
  6
CONTINUOUS
 62
     7
 10
142.43532246266429
 20
531.10567472815956
 30
0.0
  0
SEQEND
  5
4D8
  8
DATA
  6
CONTINUOUS
 62
     7
  0
POLYLINE
  5
2E2
  8
DATA
  6
CONTINUOUS
 62
     7
 66
     1
 10
0.0
 20
0.0
 30
0.0
 70
     1
  0
VERTEX
  5
4D9
  8
DATA
  6
CONTINUOUS
 62
     7
 10
140.43532246266429
 20
532.63567472815976
 30
0.0
  0
VERTEX
  5
4DA
  8
DATA
  6
CONTINUOUS
 62
     7
 10
141.96532246266429
 20
532.63567472815976
 30
0.0
  0
VERTEX
  5
4DB
  8
DATA
  6
CONTINUOUS
 62
     7
 10
141.96532246266429
 20
531.10567472815956
 30
0.0
  0
VERTEX
  5
4DC
  8
DATA
  6
CONTINUOUS
 62
     7
 10
140.43532246266429
 20
531.10567472815956
 30
0.0
  0
SEQEND
  5
4DD
  8
DATA
  6
CONTINUOUS
 62
     7
  0
POLYLINE
  5
2E9
  8
DATA
  6
CONTINUOUS
 62
     7
 66
     1
 10
0.0
 20
0.0
 30
0.0
 70
     1
  0
VERTEX
  5
4DE
  8
DATA
  6
CONTINUOUS
 62
     7
 10
138.43532246266429
 20
532.63567472815976
 30
0.0
  0
VERTEX
  5
4DF
  8
DATA
  6
CONTINUOUS
 62
     7
 10
139.96532246266429
 20
532.63567472815976
 30
0.0
  0
VERTEX
  5
4E0
  8
DATA
  6
CONTINUOUS
 62
     7
 10
139.96532246266429
 20
531.10567472815956
 30
0.0
  0
VERTEX
  5
4E1
  8
DATA
  6
CONTINUOUS
 62
     7
 10
138.43532246266429
 20
531.10567472815956
 30
0.0
  0
SEQEND
  5
4E2
  8
DATA
  6
CONTINUOUS
 62
     7
  0
POLYLINE
  5
2F0
  8
DATA
  6
CONTINUOUS
 62
     7
 66
     1
 10
0.0
 20
0.0
 30
0.0
 70
     1
  0
VERTEX
  5
4E3
  8
DATA
  6
CONTINUOUS
 62
     7
 10
136.4353224626642
 20
532.63567472815976
 30
0.0
  0
VERTEX
  5
4E4
  8
DATA
  6
CONTINUOUS
 62
     7
 10
137.96532246266429
 20
532.63567472815976
 30
0.0
  0
VERTEX
  5
4E5
  8
DATA
  6
CONTINUOUS
 62
     7
 10
137.96532246266429
 20
531.10567472815956
 30
0.0
  0
VERTEX
  5
4E6
  8
DATA
  6
CONTINUOUS
 62
     7
 10
136.4353224626642
 20
531.10567472815956
 30
0.0
  0
SEQEND
  5
4E7
  8
DATA
  6
CONTINUOUS
 62
     7
  0
POLYLINE
  5
2F7
  8
DATA
  6
CONTINUOUS
 62
     7
 66
     1
 10
0.0
 20
0.0
 30
0.0
 70
     1
  0
VERTEX
  5
4E8
  8
DATA
  6
CONTINUOUS
 62
     7
 10
134.435322462664
 20
532.63567472815976
 30
0.0
  0
VERTEX
  5
4E9
  8
DATA
  6
CONTINUOUS
 62
     7
 10
135.96532246266409
 20
532.63567472815976
 30
0.0
  0
VERTEX
  5
4EA
  8
DATA
  6
CONTINUOUS
 62
     7
 10
135.96532246266409
 20
531.10567472815956
 30
0.0
  0
VERTEX
  5
4EB
  8
DATA
  6
CONTINUOUS
 62
     7
 10
134.435322462664
 20
531.10567472815956
 30
0.0
  0
SEQEND
  5
4EC
  8
DATA
  6
CONTINUOUS
 62
     7
  0
POLYLINE
  5
2FE
  8
DATA
  6
CONTINUOUS
 62
     7
 66
     1
 10
0.0
 20
0.0
 30
0.0
 70
     1
  0
VERTEX
  5
4ED
  8
DATA
  6
CONTINUOUS
 62
     7
 10
132.43532246266389
 20
532.63567472815976
 30
0.0
  0
VERTEX
  5
4EE
  8
DATA
  6
CONTINUOUS
 62
     7
 10
133.96532246266401
 20
532.63567472815976
 30
0.0
  0
VERTEX
  5
4EF
  8
DATA
  6
CONTINUOUS
 62
     7
 10
133.96532246266401
 20
531.10567472815956
 30
0.0
  0
VERTEX
  5
4F0
  8
DATA
  6
CONTINUOUS
 62
     7
 10
132.43532246266389
 20
531.10567472815956
 30
0.0
  0
SEQEND
  5
4F1
  8
DATA
  6
CONTINUOUS
 62
     7
  0
POLYLINE
  5
305
  8
DATA
  6
CONTINUOUS
 62
     7
 66
     1
 10
0.0
 20
0.0
 30
0.0
 70
     1
  0
VERTEX
  5
4F2
  8
DATA
  6
CONTINUOUS
 62
     7
 10
130.43532246266381
 20
532.63567472815976
 30
0.0
  0
VERTEX
  5
4F3
  8
DATA
  6
CONTINUOUS
 62
     7
 10
131.96532246266389
 20
532.63567472815976
 30
0.0
  0
VERTEX
  5
4F4
  8
DATA
  6
CONTINUOUS
 62
     7
 10
131.96532246266389
 20
531.10567472815956
 30
0.0
  0
VERTEX
  5
4F5
  8
DATA
  6
CONTINUOUS
 62
     7
 10
130.43532246266381
 20
531.10567472815956
 30
0.0
  0
SEQEND
  5
4F6
  8
DATA
  6
CONTINUOUS
 62
     7
  0
POLYLINE
  5
30C
  8
DATA
  6
CONTINUOUS
 62
     7
 66
     1
 10
0.0
 20
0.0
 30
0.0
 70
     1
  0
VERTEX
  5
4F7
  8
DATA
  6
CONTINUOUS
 62
     7
 10
144.43532246266429
 20
536.63567472815976
 30
0.0
  0
VERTEX
  5
4F8
  8
DATA
  6
CONTINUOUS
 62
     7
 10
145.96532246266429
 20
536.63567472815976
 30
0.0
  0
VERTEX
  5
4F9
  8
DATA
  6
CONTINUOUS
 62
     7
 10
145.96532246266429
 20
535.10567472815956
 30
0.0
  0
VERTEX
  5
4FA
  8
DATA
  6
CONTINUOUS
 62
     7
 10
144.43532246266429
 20
535.10567472815956
 30
0.0
  0
SEQEND
  5
4FB
  8
DATA
  6
CONTINUOUS
 62
     7
  0
POLYLINE
  5
313
  8
DATA
  6
CONTINUOUS
 62
     7
 66
     1
 10
0.0
 20
0.0
 30
0.0
 70
     1
  0
VERTEX
  5
4FC
  8
DATA
  6
CONTINUOUS
 62
     7
 10
142.43532246266429
 20
536.63567472815976
 30
0.0
  0
VERTEX
  5
4FD
  8
DATA
  6
CONTINUOUS
 62
     7
 10
143.96532246266429
 20
536.63567472815976
 30
0.0
  0
VERTEX
  5
4FE
  8
DATA
  6
CONTINUOUS
 62
     7
 10
143.96532246266429
 20
535.10567472815956
 30
0.0
  0
VERTEX
  5
4FF
  8
DATA
  6
CONTINUOUS
 62
     7
 10
142.43532246266429
 20
535.10567472815956
 30
0.0
  0
SEQEND
  5
500
  8
DATA
  6
CONTINUOUS
 62
     7
  0
POLYLINE
  5
31A
  8
DATA
  6
CONTINUOUS
 62
     7
 66
     1
 10
0.0
 20
0.0
 30
0.0
 70
     1
  0
VERTEX
  5
501
  8
DATA
  6
CONTINUOUS
 62
     7
 10
140.43532246266429
 20
536.63567472815976
 30
0.0
  0
VERTEX
  5
502
  8
DATA
  6
CONTINUOUS
 62
     7
 10
141.96532246266429
 20
536.63567472815976
 30
0.0
  0
VERTEX
  5
503
  8
DATA
  6
CONTINUOUS
 62
     7
 10
141.96532246266429
 20
535.10567472815956
 30
0.0
  0
VERTEX
  5
504
  8
DATA
  6
CONTINUOUS
 62
     7
 10
140.43532246266429
 20
535.10567472815956
 30
0.0
  0
SEQEND
  5
505
  8
DATA
  6
CONTINUOUS
 62
     7
  0
POLYLINE
  5
321
  8
DATA
  6
CONTINUOUS
 62
     7
 66
     1
 10
0.0
 20
0.0
 30
0.0
 70
     1
  0
VERTEX
  5
506
  8
DATA
  6
CONTINUOUS
 62
     7
 10
138.43532246266429
 20
536.63567472815976
 30
0.0
  0
VERTEX
  5
507
  8
DATA
  6
CONTINUOUS
 62
     7
 10
139.96532246266429
 20
536.63567472815976
 30
0.0
  0
VERTEX
  5
508
  8
DATA
  6
CONTINUOUS
 62
     7
 10
139.96532246266429
 20
535.10567472815956
 30
0.0
  0
VERTEX
  5
509
  8
DATA
  6
CONTINUOUS
 62
     7
 10
138.43532246266429
 20
535.10567472815956
 30
0.0
  0
SEQEND
  5
50A
  8
DATA
  6
CONTINUOUS
 62
     7
  0
POLYLINE
  5
328
  8
DATA
  6
CONTINUOUS
 62
     7
 66
     1
 10
0.0
 20
0.0
 30
0.0
 70
     1
  0
VERTEX
  5
50B
  8
DATA
  6
CONTINUOUS
 62
     7
 10
136.4353224626642
 20
536.63567472815976
 30
0.0
  0
VERTEX
  5
50C
  8
DATA
  6
CONTINUOUS
 62
     7
 10
137.96532246266429
 20
536.63567472815976
 30
0.0
  0
VERTEX
  5
50D
  8
DATA
  6
CONTINUOUS
 62
     7
 10
137.96532246266429
 20
535.10567472815956
 30
0.0
  0
VERTEX
  5
50E
  8
DATA
  6
CONTINUOUS
 62
     7
 10
136.4353224626642
 20
535.10567472815956
 30
0.0
  0
SEQEND
  5
50F
  8
DATA
  6
CONTINUOUS
 62
     7
  0
POLYLINE
  5
32F
  8
DATA
  6
CONTINUOUS
 62
     7
 66
     1
 10
0.0
 20
0.0
 30
0.0
 70
     1
  0
VERTEX
  5
510
  8
DATA
  6
CONTINUOUS
 62
     7
 10
134.435322462664
 20
536.63567472815976
 30
0.0
  0
VERTEX
  5
511
  8
DATA
  6
CONTINUOUS
 62
     7
 10
135.96532246266409
 20
536.63567472815976
 30
0.0
  0
VERTEX
  5
512
  8
DATA
  6
CONTINUOUS
 62
     7
 10
135.96532246266409
 20
535.10567472815956
 30
0.0
  0
VERTEX
  5
513
  8
DATA
  6
CONTINUOUS
 62
     7
 10
134.435322462664
 20
535.10567472815956
 30
0.0
  0
SEQEND
  5
514
  8
DATA
  6
CONTINUOUS
 62
     7
  0
POLYLINE
  5
336
  8
DATA
  6
CONTINUOUS
 62
     7
 66
     1
 10
0.0
 20
0.0
 30
0.0
 70
     1
  0
VERTEX
  5
515
  8
DATA
  6
CONTINUOUS
 62
     7
 10
132.43532246266389
 20
536.63567472815976
 30
0.0
  0
VERTEX
  5
516
  8
DATA
  6
CONTINUOUS
 62
     7
 10
133.96532246266401
 20
536.63567472815976
 30
0.0
  0
VERTEX
  5
517
  8
DATA
  6
CONTINUOUS
 62
     7
 10
133.96532246266401
 20
535.10567472815956
 30
0.0
  0
VERTEX
  5
518
  8
DATA
  6
CONTINUOUS
 62
     7
 10
132.43532246266389
 20
535.10567472815956
 30
0.0
  0
SEQEND
  5
519
  8
DATA
  6
CONTINUOUS
 62
     7
  0
POLYLINE
  5
33D
  8
DATA
  6
CONTINUOUS
 62
     7
 66
     1
 10
0.0
 20
0.0
 30
0.0
 70
     1
  0
VERTEX
  5
51A
  8
DATA
  6
CONTINUOUS
 62
     7
 10
130.43532246266381
 20
536.63567472815976
 30
0.0
  0
VERTEX
  5
51B
  8
DATA
  6
CONTINUOUS
 62
     7
 10
131.96532246266389
 20
536.63567472815976
 30
0.0
  0
VERTEX
  5
51C
  8
DATA
  6
CONTINUOUS
 62
     7
 10
131.96532246266389
 20
535.10567472815956
 30
0.0
  0
VERTEX
  5
51D
  8
DATA
  6
CONTINUOUS
 62
     7
 10
130.43532246266381
 20
535.10567472815956
 30
0.0
  0
SEQEND
  5
51E
  8
DATA
  6
CONTINUOUS
 62
     7
  0
POLYLINE
  5
344
  8
DATA
  6
CONTINUOUS
 62
     7
 66
     1
 10
0.0
 20
0.0
 30
0.0
  0
VERTEX
  5
51F
  8
DATA
  6
CONTINUOUS
 62
     7
 10
126.4152562914842
 20
533.47067472815968
 30
0.0
  0
VERTEX
  5
520
  8
DATA
  6
CONTINUOUS
 62
     7
 10
124.3152562914842
 20
533.47067472815968
 30
0.0
  0
VERTEX
  5
521
  8
DATA
  6
CONTINUOUS
 62
     7
 10
124.3152562914842
 20
534.27067472815986
 30
0.0
  0
VERTEX
  5
522
  8
DATA
  6
CONTINUOUS
 62
     7
 10
126.4152562914842
 20
534.27067472815986
 30
0.0
  0
SEQEND
  5
523
  8
DATA
  6
CONTINUOUS
 62
     7
  0
POLYLINE
  5
34B
  8
DATA
  6
CONTINUOUS
 62
     7
 66
     1
 10
0.0
 20
0.0
 30
0.0
  0
VERTEX
  5
524
  8
DATA
  6
CONTINUOUS
 62
     7
 10
127.2152562914841
 20
534.27067472815986
 30
0.0
  0
VERTEX
  5
525
  8
DATA
  6
CONTINUOUS
 62
     7
 10
129.31525629148419
 20
534.27067472815986
 30
0.0
  0
VERTEX
  5
526
  8
DATA
  6
CONTINUOUS
 62
     7
 10
129.31525629148419
 20
533.47067472815968
 30
0.0
  0
VERTEX
  5
527
  8
DATA
  6
CONTINUOUS
 62
     7
 10
127.2152562914841
 20
533.47067472815968
 30
0.0
  0
SEQEND
  5
528
  8
DATA
  6
CONTINUOUS
 62
     7
  0
POLYLINE
  5
352
  8
DATA
  6
CONTINUOUS
 62
     7
 66
     1
 10
0.0
 20
0.0
 30
0.0
  0
VERTEX
  5
529
  8
DATA
  6
CONTINUOUS
 62
     7
 10
126.4152562914842
 20
534.27067472815986
 30
0.0
  0
VERTEX
  5
52A
  8
DATA
  6
CONTINUOUS
 62
     7
 10
126.4152562914842
 20
536.37067472815977
 30
0.0
  0
VERTEX
  5
52B
  8
DATA
  6
CONTINUOUS
 62
     7
 10
127.2152562914841
 20
536.37067472815977
 30
0.0
  0
VERTEX
  5
52C
  8
DATA
  6
CONTINUOUS
 62
     7
 10
127.2152562914841
 20
534.27067472815986
 30
0.0
  0
SEQEND
  5
52D
  8
DATA
  6
CONTINUOUS
 62
     7
  0
POLYLINE
  5
359
  8
DATA
  6
CONTINUOUS
 62
     7
 66
     1
 10
0.0
 20
0.0
 30
0.0
  0
VERTEX
  5
52E
  8
DATA
  6
CONTINUOUS
 62
     7
 10
127.2152562914841
 20
533.47067472815968
 30
0.0
  0
VERTEX
  5
52F
  8
DATA
  6
CONTINUOUS
 62
     7
 10
127.2152562914841
 20
531.37067472815977
 30
0.0
  0
VERTEX
  5
530
  8
DATA
  6
CONTINUOUS
 62
     7
 10
126.4152562914842
 20
531.37067472815977
 30
0.0
  0
VERTEX
  5
531
  8
DATA
  6
CONTINUOUS
 62
     7
 10
126.4152562914842
 20
533.47067472815968
 30
0.0
  0
SEQEND
  5
532
  8
DATA
  6
CONTINUOUS
 62
     7
  0
POLYLINE
  5
360
  8
DATA
  6
CONTINUOUS
 62
     7
 66
     1
 10
0.0
 20
0.0
 30
0.0
 70
     1
  0
VERTEX
  5
533
  8
DATA
  6
CONTINUOUS
 62
     7
 10
127.6755407219558
 20
533.11124691750967
 30
0.0
  0
VERTEX
  5
534
  8
DATA
  6
CONTINUOUS
 62
     7
 10
128.67554072195591
 20
533.11124691750967
 30
0.0
  0
VERTEX
  5
535
  8
DATA
  6
CONTINUOUS
 62
     7
 10
128.67554072195591
 20
532.11124691750979
 30
0.0
  0
VERTEX
  5
536
  8
DATA
  6
CONTINUOUS
 62
     7
 10
127.6755407219558
 20
532.11124691750979
 30
0.0
  0
SEQEND
  5
537
  8
DATA
  6
CONTINUOUS
 62
     7
  0
POLYLINE
  5
367
  8
DATA
  6
CONTINUOUS
 62
     7
 66
     1
 10
0.0
 20
0.0
 30
0.0
 70
     1
  0
VERTEX
  5
538
  8
DATA
  6
CONTINUOUS
 62
     7
 10
124.9549718610124
 20
533.11124691750967
 30
0.0
  0
VERTEX
  5
539
  8
DATA
  6
CONTINUOUS
 62
     7
 10
125.9549718610124
 20
533.11124691750967
 30
0.0
  0
VERTEX
  5
53A
  8
DATA
  6
CONTINUOUS
 62
     7
 10
125.9549718610124
 20
532.11124691750979
 30
0.0
  0
VERTEX
  5
53B
  8
DATA
  6
CONTINUOUS
 62
     7
 10
124.9549718610124
 20
532.11124691750979
 30
0.0
  0
SEQEND
  5
53C
  8
DATA
  6
CONTINUOUS
 62
     7
  0
POLYLINE
  5
36E
  8
DATA
  6
CONTINUOUS
 62
     7
 66
     1
 10
0.0
 20
0.0
 30
0.0
 70
     1
  0
VERTEX
  5
53D
  8
DATA
  6
CONTINUOUS
 62
     7
 10
127.6755407219558
 20
535.63010253880975
 30
0.0
  0
VERTEX
  5
53E
  8
DATA
  6
CONTINUOUS
 62
     7
 10
128.67554072195591
 20
535.63010253880975
 30
0.0
  0
VERTEX
  5
53F
  8
DATA
  6
CONTINUOUS
 62
     7
 10
128.67554072195591
 20
534.63010253880975
 30
0.0
  0
VERTEX
  5
540
  8
DATA
  6
CONTINUOUS
 62
     7
 10
127.6755407219558
 20
534.63010253880975
 30
0.0
  0
SEQEND
  5
541
  8
DATA
  6
CONTINUOUS
 62
     7
  0
POLYLINE
  5
375
  8
DATA
  6
CONTINUOUS
 62
     7
 66
     1
 10
0.0
 20
0.0
 30
0.0
 70
     1
  0
VERTEX
  5
542
  8
DATA
  6
CONTINUOUS
 62
     7
 10
124.9549718610124
 20
535.63010253880975
 30
0.0
  0
VERTEX
  5
543
  8
DATA
  6
CONTINUOUS
 62
     7
 10
125.9549718610124
 20
535.63010253880975
 30
0.0
  0
VERTEX
  5
544
  8
DATA
  6
CONTINUOUS
 62
     7
 10
125.9549718610124
 20
534.63010253880975
 30
0.0
  0
VERTEX
  5
545
  8
DATA
  6
CONTINUOUS
 62
     7
 10
124.9549718610124
 20
534.63010253880975
 30
0.0
  0
SEQEND
  5
546
  8
DATA
  6
CONTINUOUS
 62
     7
  0
LINE
  5
37C
  8
DATA
  6
CONTINUOUS
 62
     7
 10
146.91062810943211
 20
531.04078303364588
 30
0.0
 11
146.35171091197981
 21
536.89078303364602
 31
0.0
  0
LINE
  5
37D
  8
DATA
  6
CONTINUOUS
 62
     7
 10
123.0198844735373
 20
531.04078303364588
 30
0.0
 11
123.57880167098951
 21
536.89078303364602
 31
0.0
  0
ARC
  5
37E
  8
DATA
  6
CONTINUOUS
 62
     7
 10
145.9151611786767
 20
530.94567472815982
 30
0.0
 40
1.0
 50
270.0
 51
5.4575534851073844
  0
ARC
  5
37F
  8
DATA
  6
CONTINUOUS
 62
     7
 10
124.0153514042926
 20
530.94567472815982
 30
0.0
 40
0.9999999999999191
 50
174.54244651489199
 51
270.0
  0
ARC
  5
380
  8
DATA
  6
CONTINUOUS
 62
     7
 10
145.3562439812244
 20
536.79567472815984
 30
0.0
 40
0.9999999999999754
 50
5.4575534851077103
 51
90.0
  0
ARC
  5
381
  8
DATA
  6
CONTINUOUS
 62
     7
 10
124.57426860174481
 20
536.79567472815984
 30
0.0
 40
1.0
 50
90.0
 51
174.5424465148952
  0
TEXT
  5
382
  8
DATA
 62
     7
 10
141.41034301599061
 20
544.43231076136374
 30
0.0
 40
2.4432617187500001
  1
DVI Out
 50
180.0
 41
0.7
 11
141.41034301599061
 21
541.98904904261371
 31
0.0
 73
     3
  0
LINE
  5
383
  8
DATA
  6
CONTINUOUS
 62
     7
 10
116.3769877012665
 20
452.50000000021572
 30
0.0
 11
119.66313714839301
 21
452.50000000021572
 31
0.0
  0
LINE
  5
384
  8
DATA
  6
CONTINUOUS
 62
     7
 10
153.553524881703
 20
452.50000000021572
 30
0.0
 11
149.3396743288292
 21
452.50000000021572
 31
0.0
  0
LINE
  5
385
  8
DATA
  6
CONTINUOUS
 62
     7
 10
116.3769877012665
 20
452.50000000021572
 30
0.0
 11
116.3769877012665
 21
448.0
 31
0.0
  0
LINE
  5
386
  8
DATA
  6
CONTINUOUS
 62
     7
 10
153.553524881703
 20
452.50000000021572
 30
0.0
 11
153.553524881703
 21
448.0
 31
0.0
  0
ENDSEC
  0
EOF
