  0
SECTION
  2
HEADER
  9
$ACADVER
  1
AC1009
  9
$INSBASE
 10
0.0
 20
0.0
 30
0.0
  9
$EXTMIN
 10
29.989015033921529
 20
7.2674579490762881
 30
-0.0015258207003583
  9
$EXTMAX
 10
570.01739634668616
 20
810.02472112423811
 30
0.0000000349246037
  9
$LIMMIN
 10
0.0
 20
0.0
  9
$LIMMAX
 10
0.0
 20
0.0
  9
$ORTHOMODE
 70
     0
  9
$REGENMODE
 70
     1
  9
$FILLMODE
 70
     1
  9
$QTEXTMODE
 70
     0
  9
$MIRRTEXT
 70
     1
  9
$DRAGMODE
 70
     2
  9
$LTSCALE
 40
15.24
  9
$OSMODE
 70
   231
  9
$ATTMODE
 70
     1
  9
$TEXTSIZE
 40
0.0
  9
$TRACEWID
 40
1.0
  9
$TEXTSTYLE
  7
STANDARD
  9
$CLAYER
  8
DATA
  9
$CELTYPE
  6
BYLAYER
  9
$CECOLOR
 62
   256
  9
$DIMSCALE
 40
1.0
  9
$DIMASZ
 40
0.18
  9
$DIMEXO
 40
0.0625
  9
$DIMDLI
 40
0.38
  9
$DIMRND
 40
0.0
  9
$DIMDLE
 40
0.0
  9
$DIMEXE
 40
0.18
  9
$DIMTP
 40
0.0
  9
$DIMTM
 40
0.0
  9
$DIMTXT
 40
0.18
  9
$DIMCEN
 40
0.09
  9
$DIMTSZ
 40
0.0
  9
$DIMTOL
 70
     0
  9
$DIMLIM
 70
     0
  9
$DIMTIH
 70
     1
  9
$DIMTOH
 70
     1
  9
$DIMSE1
 70
     0
  9
$DIMSE2
 70
     0
  9
$DIMTAD
 70
     0
  9
$DIMZIN
 70
     0
  9
$DIMBLK
  1

  9
$DIMASO
 70
     1
  9
$DIMSHO
 70
     1
  9
$DIMPOST
  1

  9
$DIMAPOST
  1

  9
$DIMALT
 70
     0
  9
$DIMALTD
 70
     2
  9
$DIMALTF
 40
25.399999999999999
  9
$DIMLFAC
 40
1.0
  9
$DIMTOFL
 70
     0
  9
$DIMTVP
 40
0.0
  9
$DIMTIX
 70
     0
  9
$DIMSOXD
 70
     0
  9
$DIMSAH
 70
     0
  9
$DIMBLK1
  1

  9
$DIMBLK2
  1

  9
$DIMSTYLE
  2
STANDARD
  9
$DIMCLRD
 70
     0
  9
$DIMCLRE
 70
     0
  9
$DIMCLRT
 70
     0
  9
$DIMTFAC
 40
1.0
  9
$DIMGAP
 40
0.09
  9
$LUNITS
 70
     2
  9
$LUPREC
 70
     4
  9
$SKETCHINC
 40
0.1
  9
$FILLETRAD
 40
0.0
  9
$AUNITS
 70
     0
  9
$AUPREC
 70
     0
  9
$MENU
  1
acad
  9
$ELEVATION
 40
0.0
  9
$PELEVATION
 40
0.0
  9
$THICKNESS
 40
0.0
  9
$LIMCHECK
 70
     0
  9
$BLIPMODE
 70
     0
  9
$CHAMFERA
 40
0.0
  9
$CHAMFERB
 40
0.0
  9
$SKPOLY
 70
     0
  9
$TDCREATE
 40
2455202.6566550932
  9
$TDUPDATE
 40
2455202.66439375
  9
$TDINDWG
 40
0.00023125
  9
$TDUSRTIMER
 40
0.0002310648
  9
$USRTIMER
 70
     1
  9
$ANGBASE
 50
0.0
  9
$ANGDIR
 70
     0
  9
$PDMODE
 70
     1
  9
$PDSIZE
 40
-2.0
  9
$PLINEWID
 40
0.0
  9
$COORDS
 70
     0
  9
$SPLFRAME
 70
     0
  9
$SPLINETYPE
 70
     6
  9
$SPLINESEGS
 70
     8
  9
$ATTDIA
 70
     0
  9
$ATTREQ
 70
     1
  9
$HANDLING
 70
     1
  9
$HANDSEED
  5
621
  9
$SURFTAB1
 70
     6
  9
$SURFTAB2
 70
     6
  9
$SURFTYPE
 70
     6
  9
$SURFU
 70
     6
  9
$SURFV
 70
     6
  9
$UCSNAME
  2

  9
$UCSORG
 10
0.0
 20
0.0
 30
0.0
  9
$UCSXDIR
 10
1.0
 20
0.0
 30
0.0
  9
$UCSYDIR
 10
0.0
 20
1.0
 30
0.0
  9
$PUCSNAME
  2

  9
$PUCSORG
 10
0.0
 20
0.0
 30
0.0
  9
$PUCSXDIR
 10
1.0
 20
0.0
 30
0.0
  9
$PUCSYDIR
 10
0.0
 20
1.0
 30
0.0
  9
$USERI1
 70
     0
  9
$USERI2
 70
     0
  9
$USERI3
 70
     0
  9
$USERI4
 70
     0
  9
$USERI5
 70
     0
  9
$USERR1
 40
0.0
  9
$USERR2
 40
0.0
  9
$USERR3
 40
0.0
  9
$USERR4
 40
0.0
  9
$USERR5
 40
0.0
  9
$WORLDVIEW
 70
     1
  9
$SHADEDGE
 70
     3
  9
$SHADEDIF
 70
    70
  9
$TILEMODE
 70
     1
  9
$MAXACTVP
 70
    64
  9
$PLIMCHECK
 70
     0
  9
$PEXTMIN
 10
1.0000000000000000E+020
 20
1.0000000000000000E+020
 30
1.0000000000000000E+020
  9
$PEXTMAX
 10
-1.0000000000000000E+020
 20
-1.0000000000000000E+020
 30
-1.0000000000000000E+020
  9
$PLIMMIN
 10
0.0
 20
0.0
  9
$PLIMMAX
 10
12.0
 20
9.0
  9
$UNITMODE
 70
     0
  9
$VISRETAIN
 70
     0
  9
$PLINEGEN
 70
     1
  9
$PSLTSCALE
 70
     0
  0
ENDSEC
  0
SECTION
  2
TABLES
  0
TABLE
  2
VPORT
 70
     1
  0
VPORT
  2
*ACTIVE
 70
     0
 10
0.0
 20
0.0
 11
1.0
 21
1.0
 12
300.00320569030379
 22
408.64608953665709
 13
0.0
 23
0.0
 14
1.0
 24
1.0
 15
0.0
 25
0.0
 16
0.0
 26
0.0
 36
1.0
 17
0.0
 27
0.0
 37
0.0
 40
808.67439287915568
 41
1.964329643296433
 42
50.0
 43
0.0
 44
0.0
 50
0.0
 51
0.0
 71
     0
 72
  2000
 73
     1
 74
     1
 75
     0
 76
     0
 77
     0
 78
     0
  0
ENDTAB
  0
TABLE
  2
LTYPE
 70
    11
  0
LTYPE
  2
CONTINUOUS
 70
     0
  3
Solid line
 72
    65
 73
     0
 40
0.0
  0
ENDTAB
  0
TABLE
  2
LAYER
 70
     5
  0
LAYER
  2
0
 70
     0
 62
     7
  6
CONTINUOUS
  0
LAYER
  2
DATA
 70
     0
 62
     7
  6
CONTINUOUS
  0
LAYER
  2
HIBINO-BASE
 70
     0
 62
     7
  6
CONTINUOUS
  0
LAYER
  2
SPEC
 70
     0
 62
     7
  6
CONTINUOUS
  0
LAYER
  2
DIMNSIONS
 70
     0
 62
     7
  6
CONTINUOUS
  0
ENDTAB
  0
TABLE
  2
STYLE
 70
     3
  0
STYLE
  2
STANDARD
 70
     0
 40
0.0
 41
1.0
 50
0.0
 71
     0
 42
0.0
  3
txt
  4
BIGFONT.SHX
  0
ENDTAB
  0
TABLE
  2
VIEW
 70
     0
  0
ENDTAB
  0
TABLE
  2
UCS
 70
     0
  0
ENDTAB
  0
TABLE
  2
APPID
 70
     3
  0
APPID
  2
ACAD
 70
     0
  0
APPID
  2
ACADANNOTATIVE
 70
     0
  0
APPID
  2
ACAD_MLEADERVER
 70
     0
  0
ENDTAB
  0
TABLE
  2
DIMSTYLE
 70
     2
  0
DIMSTYLE
  2
STANDARD
 70
     0
  3

  4

  5

  6

  7

 40
1.0
 41
0.18
 42
0.0625
 43
0.38
 44
0.18
 45
0.0
 46
0.0
 47
0.0
 48
0.0
140
0.18
141
0.09
142
0.0
143
25.399999999999999
144
1.0
145
0.0
146
1.0
147
0.09
 71
     0
 72
     0
 73
     1
 74
     1
 75
     0
 76
     0
 77
     0
 78
     0
170
     0
171
     2
172
     0
173
     0
174
     0
175
     0
176
     0
177
     0
178
     0
  0
ENDTAB
  0
ENDSEC
  0
SECTION
  2
BLOCKS
  0
BLOCK
  8
0
  2
$MODEL_SPACE
 70
     0
 10
0.0
 20
0.0
 30
0.0
  3
$MODEL_SPACE
  1

  0
ENDBLK
  5
45C
  8
0
  0
BLOCK
 67
     1
  8
0
  2
$PAPER_SPACE
 70
     0
 10
0.0
 20
0.0
 30
0.0
  3
$PAPER_SPACE
  1

  0
ENDBLK
  5
458
 67
     1
  8
0
  0
ENDSEC
  0
SECTION
  2
ENTITIES
  0
LINE
  5
2C
  8
HIBINO-BASE
  6
CONTINUOUS
 62
     7
 10
30.0
 20
810.0
 30
0.0
 11
569.99999999999989
 21
810.0
 31
0.0
  0
LINE
  5
2D
  8
HIBINO-BASE
  6
CONTINUOUS
 62
     7
 10
569.99999999999989
 20
30.0
 30
0.0
 11
30.0
 21
30.0
 31
0.0
  0
LINE
  5
2E
  8
HIBINO-BASE
  6
CONTINUOUS
 62
     7
 10
30.0
 20
30.0
 30
0.0
 11
30.0
 21
810.0
 31
0.0
  0
LINE
  5
2F
  8
HIBINO-BASE
  6
CONTINUOUS
 62
     7
 10
569.99999999999989
 20
810.0
 30
0.0
 11
569.99999999999989
 21
30.0
 31
0.0
  0
LINE
  5
30
  8
HIBINO-BASE
  6
CONTINUOUS
 62
     7
 10
300.0
 20
97.500000000000057
 30
0.0
 11
569.99999999999989
 21
97.500000000000057
 31
0.0
  0
LINE
  5
31
  8
HIBINO-BASE
  6
CONTINUOUS
 62
     7
 10
300.0
 20
30.0
 30
0.0
 11
300.0
 21
97.500000000000057
 31
0.0
  0
TEXT
  5
32
  8
HIBINO-BASE
 62
     7
 10
302.69999999999987
 20
89.973919999999993
 30
0.0
 40
4.8865234374999993
  1
NOTE
 41
0.7
 11
302.69999999999987
 21
94.860443437499995
 31
0.0
 73
     3
  0
LINE
  5
33
  8
HIBINO-BASE
  6
CONTINUOUS
 62
     7
 10
405.0
 20
30.0
 30
0.0
 11
405.0
 21
97.500000000000057
 31
0.0
  0
TEXT
  5
34
  8
HIBINO-BASE
 62
     7
 10
407.69999999999987
 20
89.973919999999993
 30
0.0
 40
4.8865234374999993
  1
TITLE
 41
0.7
 11
407.69999999999987
 21
94.860443437499995
 31
0.0
 73
     3
  0
LINE
  5
35
  8
HIBINO-BASE
  6
CONTINUOUS
 62
     7
 10
300.0
 20
60.000000000000071
 30
0.0
 11
569.99999999999989
 21
60.000000000000071
 31
0.0
  0
TEXT
  5
36
  8
HIBINO-BASE
 62
     7
 10
445.19999999999987
 20
52.64287999999997
 30
0.0
 40
4.8865234374999993
  1
DRAWN
 41
0.7
 11
445.19999999999987
 21
57.529403437499973
 31
0.0
 73
     3
  0
TEXT
  5
37
  8
HIBINO-BASE
 62
     7
 10
370.19999999999987
 20
52.64287999999997
 30
0.0
 40
4.8865234374999993
  1
DATE
 41
0.7
 11
370.19999999999987
 21
57.529403437499973
 31
0.0
 73
     3
  0
TEXT
  5
38
  8
HIBINO-BASE
 62
     7
 10
340.19999999999987
 20
52.64287999999997
 30
0.0
 40
4.8865234374999993
  1
SCALE
 41
0.7
 11
340.19999999999987
 21
57.529403437499973
 31
0.0
 73
     3
  0
TEXT
  5
39
  8
HIBINO-BASE
 62
     7
 10
407.69999999999987
 20
52.64287999999997
 30
0.0
 40
4.8865234374999993
  1
DESIGN
 41
0.7
 11
407.69999999999987
 21
57.529403437499973
 31
0.0
 73
     3
  0
TEXT
  5
3A
  8
HIBINO-BASE
 62
     7
 10
520.19999999999993
 20
52.64287999999997
 30
0.0
 40
4.8865234374999993
  1
DRAWING NO.
 41
0.7
 11
520.19999999999993
 21
57.529403437499973
 31
0.0
 73
     3
  0
TEXT
  5
3B
  8
HIBINO-BASE
 62
     7
 10
482.69999999999987
 20
52.64287999999997
 30
0.0
 40
4.8865234374999993
  1
CHECK
 41
0.7
 11
482.69999999999987
 21
57.529403437499973
 31
0.0
 73
     3
  0
LINE
  5
3C
  8
HIBINO-BASE
  6
CONTINUOUS
 62
     7
 10
343.12499999999989
 20
33.75
 30
0.0
 11
354.37499999999989
 21
45.000000000000057
 31
0.0
  0
TEXT
  5
3D
  8
HIBINO-BASE
 62
     7
 10
341.25
 20
41.673170000000013
 30
0.0
 40
4.8865234374999993
  1
1
 41
0.7
 11
341.25
 21
46.559693437500009
 31
0.0
 73
     3
  0
LINE
  5
3E
  8
HIBINO-BASE
  6
CONTINUOUS
 62
     7
 10
337.5
 20
30.0
 30
0.0
 11
337.5
 21
60.000000000000071
 31
0.0
  0
LINE
  5
3F
  8
HIBINO-BASE
  6
CONTINUOUS
 62
     7
 10
367.5
 20
30.0
 30
0.0
 11
367.5
 21
60.000000000000071
 31
0.0
  0
LINE
  5
40
  8
HIBINO-BASE
  6
CONTINUOUS
 62
     7
 10
442.49999999999989
 20
60.000000000000071
 30
0.0
 11
442.49999999999989
 21
30.0
 31
0.0
  0
LINE
  5
41
  8
HIBINO-BASE
  6
CONTINUOUS
 62
     7
 10
517.49999999999989
 20
60.000000000000071
 30
0.0
 11
517.49999999999989
 21
30.0
 31
0.0
  0
LINE
  5
42
  8
HIBINO-BASE
  6
CONTINUOUS
 62
     7
 10
479.99999999999989
 20
30.0
 30
0.0
 11
479.99999999999989
 21
60.000000000000071
 31
0.0
  0
TEXT
  5
43
  8
HIBINO-BASE
 62
     7
 10
370.06961999999987
 20
38.590939999999982
 30
0.0
 40
4.8865234374999993
  1
'09.06.
 41
0.7
 11
370.06961999999987
 21
43.477463437499978
 31
0.0
 73
     3
  0
TEXT
  5
44
  8
HIBINO-BASE
 62
     7
 10
352.49999999999989
 20
36.048170000000013
 30
0.0
 40
4.8865234374999993
  1
3
 41
0.7
 11
352.49999999999989
 21
40.934693437500009
 31
0.0
 73
     3
  0
TEXT
  5
45
  8
HIBINO-BASE
 62
     7
 10
447.01743003310372
 20
38.590939999999982
 30
0.0
 40
4.8865234374999993
  1
T.Ootake
 41
0.7
 11
447.01743003310372
 21
43.477463437499978
 31
0.0
 73
     3
  0
TEXT
  5
46
  8
HIBINO-BASE
 62
     7
 10
311.64999999999998
 20
35.928000000000033
 30
0.0
 40
9.7730468749999986
  1
A4
 41
0.7
 11
311.64999999999998
 21
45.701046875000031
 31
0.0
 73
     3
  0
TEXT
  5
47
  8
HIBINO-BASE
 62
     7
 10
302.875
 20
52.141635000000051
 30
0.0
 40
4.8865234374999993
  1
PAPER SIZE
 41
0.7
 11
302.875
 21
57.028158437500053
 31
0.0
 73
     3
  0
TEXT
  5
48
  8
HIBINO-BASE
 62
     7
 10
38.742632240394357
 20
10.816519385235591
 30
0.0
 40
10.58746744791666
  1
Hibino-Intersound Corporation
 41
0.7
 11
38.742632240394357
 21
21.40398683315226
 31
0.0
 73
     3
  0
TEXT
  5
49
  8
HIBINO-BASE
 62
     7
 10
361.9378998119634
 20
11.74753638661347
 30
0.0
 40
10.58746744791666
  1
ヒビノインターサウンド株式会社
 41
0.7
 11
361.9378998119634
 21
22.335003834530141
 31
0.0
 73
     3
  0
LINE
  5
4A
  8
SPEC
  6
CONTINUOUS
 62
     7
 10
52.5
 20
780.0
 30
0.0
 11
495.0
 21
780.0
 31
0.0
  0
LINE
  5
4B
  8
SPEC
  6
CONTINUOUS
 62
     7
 10
52.5
 20
768.75
 30
0.0
 11
495.0
 21
768.75
 31
0.0
  0
LINE
  5
4C
  8
SPEC
  6
CONTINUOUS
 62
     7
 10
52.5
 20
723.74999999999989
 30
0.0
 11
495.0
 21
723.74999999999989
 31
0.0
  0
LINE
  5
4D
  8
SPEC
  6
CONTINUOUS
 62
     7
 10
52.5
 20
735.0
 30
0.0
 11
495.0
 21
735.0
 31
0.0
  0
LINE
  5
4E
  8
SPEC
  6
CONTINUOUS
 62
     7
 10
52.5
 20
746.25
 30
0.0
 11
495.0
 21
746.25
 31
0.0
  0
LINE
  5
4F
  8
SPEC
  6
CONTINUOUS
 62
     7
 10
52.5
 20
712.5
 30
0.0
 11
495.0
 21
712.5
 31
0.0
  0
LINE
  5
50
  8
SPEC
  6
CONTINUOUS
 62
     7
 10
52.5
 20
690.0
 30
0.0
 11
495.0
 21
690.0
 31
0.0
  0
LINE
  5
51
  8
SPEC
  6
CONTINUOUS
 62
     7
 10
52.5
 20
701.25
 30
0.0
 11
495.0
 21
701.25
 31
0.0
  0
LINE
  5
52
  8
SPEC
  6
CONTINUOUS
 62
     7
 10
52.5
 20
757.5
 30
0.0
 11
495.0
 21
757.5
 31
0.0
  0
LINE
  5
53
  8
SPEC
  6
CONTINUOUS
 62
     7
 10
52.5
 20
780.0
 30
0.0
 11
52.5
 21
622.5
 31
0.0
  0
TEXT
  5
54
  8
SPEC
 62
     7
 10
56.25
 20
784.17980999999986
 30
0.0
 40
7.3297851562499989
  1
仕様
 41
0.7
 11
56.25
 21
791.50959515624982
 31
0.0
 73
     3
  0
LINE
  5
55
  8
SPEC
  6
CONTINUOUS
 62
     7
 10
166.9030354289267
 20
780.0
 30
0.0
 11
166.9030354289267
 21
622.5
 31
0.0
  0
LINE
  5
56
  8
SPEC
  6
CONTINUOUS
 62
     7
 10
495.0
 20
780.0
 30
0.0
 11
495.0
 21
622.5
 31
0.0
  0
TEXT
  5
57
  8
SPEC
 62
     7
 10
55.201660686892467
 20
771.50728961713151
 30
0.0
 40
5.700933749999999
  1
形式
 41
0.7
 11
55.201660686892467
 21
777.20822336713161
 31
0.0
 73
     3
  0
TEXT
  5
58
  8
SPEC
 62
     7
 10
169.88740996470659
 20
771.55755921111972
 30
0.0
 40
5.700933749999999
  1
DVI-AUDIO-CAT5延長機
 41
0.7
 11
169.88740996470659
 21
777.25849296111971
 31
0.0
 73
     3
  0
TEXT
  5
59
  8
SPEC
 62
     7
 10
55.41605982573904
 20
715.12650345553027
 30
0.0
 40
5.700933749999999
  1
DVI入出力端子
 41
0.7
 11
55.41605982573904
 21
720.82743720553015
 31
0.0
 73
     3
  0
TEXT
  5
5A
  8
SPEC
 62
     7
 10
55.069601968788497
 20
636.43352826027706
 30
0.0
 40
5.700933749999999
  1
寸法
 41
0.7
 11
55.069601968788497
 21
642.13446201027705
 31
0.0
 73
     3
  0
TEXT
  5
5B
  8
SPEC
 62
     7
 10
55.209338400414083
 20
625.25700762104339
 30
0.0
 40
5.700933749999999
  1
重量
 41
0.7
 11
55.209338400414083
 21
630.95794137104349
 31
0.0
 73
     3
  0
TEXT
  5
5C
  8
SPEC
 62
     7
 10
55.146555851274172
 20
658.98284306546304
 30
0.0
 40
5.700933749999999
  1
電源
 41
0.7
 11
55.146555851274172
 21
664.68377681546303
 31
0.0
 73
     3
  0
TEXT
  5
5D
  8
SPEC
 62
     7
 10
54.095996286496238
 20
760.37658381214771
 30
0.0
 40
5.700933749999999
  1
ビデオアンプ帯域
 41
0.7
 11
54.095996286496238
 21
766.0775175621477
 31
0.0
 73
     3
  0
TEXT
  5
5E
  8
SPEC
 62
     7
 10
55.323344416202183
 20
748.85994989672668
 30
0.0
 40
5.700933749999999
  1
入力ビデオ信号
 41
0.7
 11
55.323344416202183
 21
754.56088364672655
 31
0.0
 73
     3
  0
TEXT
  5
5F
  8
SPEC
 62
     7
 10
169.80331005592501
 20
715.35823497927822
 30
0.0
 40
5.700933749999999
  1
DVI-I(29pin,メス,Digital only)
 41
0.7
 11
169.80331005592501
 21
721.05916872927821
 31
0.0
 73
     3
  0
TEXT
  5
60
  8
SPEC
 62
     7
 10
169.8304328956963
 20
658.56631611957584
 30
0.0
 40
5.700933749999999
  1
5V DC
 41
0.7
 11
169.8304328956963
 21
664.26724986957583
 31
0.0
 73
     3
  0
TEXT
  5
61
  8
SPEC
 62
     7
 10
169.41409040917031
 20
749.24233347275242
 30
0.0
 40
5.700933749999999
  1
1.2V p-p
 41
0.7
 11
169.41409040917031
 21
754.94326722275241
 31
0.0
 73
     3
  0
TEXT
  5
62
  8
SPEC
 62
     7
 10
169.41725954179611
 20
760.14548828466582
 30
0.0
 40
5.700933749999999
  1
165MHz
 41
0.7
 11
169.41725954179611
 21
765.84642203466581
 31
0.0
 73
     3
  0
TEXT
  5
63
  8
SPEC
 62
     7
 10
55.332406303280642
 20
737.62666597575503
 30
0.0
 40
5.700933749999999
  1
入力DDC信号
 41
0.7
 11
55.332406303280642
 21
743.32759972575502
 31
0.0
 73
     3
  0
TEXT
  5
64
  8
SPEC
 62
     7
 10
169.82826794730619
 20
737.93828170000916
 30
0.0
 40
5.700933749999999
  1
5V p-p(TTL)
 41
0.7
 11
169.82826794730619
 21
743.63921545000915
 31
0.0
 73
     3
  0
TEXT
  5
65
  8
SPEC
 62
     7
 10
169.4388898726186
 20
636.29821187331765
 30
0.0
 40
5.7009440104166647
  1
142(W)\U+00D729(H)\U+00D786(D)mm(突起部含まず)、(センダー、レシーバー共に)
 41
0.7
 11
169.4388898726186
 21
641.99915588373426
 31
0.0
 73
     3
  0
TEXT
  5
66
  8
SPEC
 62
     7
 10
169.73978225501671
 20
625.37102000459868
 30
0.0
 40
5.7009440104166647
  1
約200g(センダー、レシーバー共に）
 41
0.7
 11
169.73978225501671
 21
631.0719640150154
 31
0.0
 73
     3
  0
LINE
  5
67
  8
SPEC
  6
CONTINUOUS
 62
     7
 10
52.5
 20
678.75
 30
0.0
 11
495.0
 21
678.75
 31
0.0
  0
LINE
  5
68
  8
SPEC
  6
CONTINUOUS
 62
     7
 10
52.5
 20
667.49999999999989
 30
0.0
 11
495.0
 21
667.49999999999989
 31
0.0
  0
LINE
  5
69
  8
SPEC
  6
CONTINUOUS
 62
     7
 10
52.5
 20
656.25
 30
0.0
 11
495.0
 21
656.25
 31
0.0
  0
TEXT
  5
6A
  8
SPEC
 62
     7
 10
53.864530868710119
 20
670.34822411219534
 30
0.0
 40
5.700933749999999
  1
リンクコネクター
 41
0.7
 11
53.864530868710119
 21
676.04915786219533
 31
0.0
 73
     3
  0
TEXT
  5
6B
  8
SPEC
 62
     7
 10
169.8247436031605
 20
670.12187979088196
 30
0.0
 40
5.700933749999999
  1
RJ-45
 41
0.7
 11
169.8247436031605
 21
675.82281354088195
 31
0.0
 73
     3
  0
TEXT
  5
6C
  8
SPEC
 62
     7
 10
55.236004247950063
 20
647.71726764648213
 30
0.0
 40
5.700933749999999
  1
消費電力
 41
0.7
 11
55.236004247950063
 21
653.41820139648212
 31
0.0
 73
     3
  0
TEXT
  5
6D
  8
SPEC
 62
     7
 10
169.4156480421608
 20
647.50565053647369
 30
0.0
 40
5.700933749999999
  1
10W(最大)
 41
0.7
 11
169.4156480421608
 21
653.2065842864738
 31
0.0
 73
     3
  0
TEXT
  5
6E
  8
SPEC
 62
     7
 10
55.37400373403581
 20
726.59360610016552
 30
0.0
 40
5.700933749999999
  1
最大対応周波数
 41
0.7
 11
55.37400373403581
 21
732.29453985016551
 31
0.0
 73
     3
  0
TEXT
  5
6F
  8
SPEC
 62
     7
 10
169.3851555519735
 20
726.68828170000916
 30
0.0
 40
5.700933749999999
  1
1080p,1920\U+00D71200
 41
0.7
 11
169.3851555519735
 21
732.38921545000915
 31
0.0
 73
     3
  0
TEXT
  5
70
  8
SPEC
 62
     7
 10
55.357611763780447
 20
703.87650345553038
 30
0.0
 40
5.700933749999999
  1
輸送レート
 41
0.7
 11
55.357611763780447
 21
709.57743720553026
 31
0.0
 73
     3
  0
TEXT
  5
71
  8
SPEC
 62
     7
 10
169.44062788001921
 20
704.10823497927822
 30
0.0
 40
5.700933749999999
  1
12.8Mb/s
 41
0.7
 11
169.44062788001921
 21
709.8091687292781
 31
0.0
 73
     3
  0
TEXT
  5
72
  8
SPEC
 62
     7
 10
55.00885176007781
 20
692.62650345553038
 30
0.0
 40
5.700933749999999
  1
デジタルオーディオ入出力端子
 41
0.7
 11
55.00885176007781
 21
698.32743720553026
 31
0.0
 73
     3
  0
TEXT
  5
73
  8
SPEC
 62
     7
 10
169.88763849619471
 20
692.85823497927822
 30
0.0
 40
5.700933749999999
  1
S/PDIF(Coax),Toslink(Optical)
 41
0.7
 11
169.88763849619471
 21
698.55916872927821
 31
0.0
 73
     3
  0
TEXT
  5
74
  8
SPEC
 62
     7
 10
55.031163959172453
 20
681.37650345553027
 30
0.0
 40
5.700933749999999
  1
アナログオーディオ端子
 41
0.7
 11
55.031163959172453
 21
687.07743720553026
 31
0.0
 73
     3
  0
TEXT
  5
75
  8
SPEC
 62
     7
 10
169.804014357239
 20
681.60823497927822
 30
0.0
 40
5.700933749999999
  1
RCA(L+R)
 41
0.7
 11
169.804014357239
 21
687.30916872927821
 31
0.0
 73
     3
  0
LINE
  5
76
  8
SPEC
  6
CONTINUOUS
 62
     7
 10
52.5
 20
645.0
 30
0.0
 11
495.0
 21
645.0
 31
0.0
  0
LINE
  5
77
  8
SPEC
  6
CONTINUOUS
 62
     7
 10
52.5
 20
633.75
 30
0.0
 11
495.0
 21
633.75
 31
0.0
  0
LINE
  5
78
  8
SPEC
  6
CONTINUOUS
 62
     7
 10
52.5
 20
622.5
 30
0.0
 11
495.0
 21
622.5
 31
0.0
  0
TEXT
  5
79
  8
DIMNSIONS
 62
     7
 10
240.0
 20
66.808470000000028
 30
0.0
 40
7.3297851562499989
  1
(単位：mm)
 41
0.7
 11
240.0
 21
74.138255156250025
 31
0.0
 73
     3
  0
LINE
  5
7A
  8
DIMNSIONS
  6
CONTINUOUS
 62
     7
 10
131.5
 20
412.5
 30
0.0
 11
106.5
 21
412.5
 31
0.0
  0
LINE
  5
7B
  8
DIMNSIONS
  6
CONTINUOUS
 62
     7
 10
131.5
 20
441.5
 30
0.0
 11
106.5
 21
441.5
 31
0.0
  0
LINE
  5
7C
  8
DIMNSIONS
  6
CONTINUOUS
 62
     7
 10
112.5
 20
412.5
 30
0.0
 11
112.5
 21
441.5
 31
0.0
  0
LINE
  5
7D
  8
DIMNSIONS
  6
CONTINUOUS
 62
     7
 10
112.5
 20
412.5
 30
0.0
 11
110.48988061454919
 21
420.00186767578111
 31
0.0
  0
LINE
  5
7E
  8
DIMNSIONS
  6
CONTINUOUS
 62
     7
 10
112.5
 20
412.5
 30
0.0
 11
114.51011938545069
 21
420.00186767578111
 31
0.0
  0
LINE
  5
7F
  8
DIMNSIONS
  6
CONTINUOUS
 62
     7
 10
112.5
 20
441.5
 30
0.0
 11
114.51011938545069
 21
433.99813232421877
 31
0.0
  0
LINE
  5
80
  8
DIMNSIONS
  6
CONTINUOUS
 62
     7
 10
112.5
 20
441.5
 30
0.0
 11
110.48988061454919
 21
433.99813232421877
 31
0.0
  0
TEXT
  5
81
  8
DIMNSIONS
 62
     7
 10
109.5183333333333
 20
421.70833333333331
 30
0.0
 40
8.1442057291666661
  1
29
 50
90.0
 41
0.7
 11
101.3741276041667
 21
421.70833333333331
 31
0.0
 73
     3
  0
LINE
  5
82
  8
DIMNSIONS
  6
CONTINUOUS
 62
     7
 10
135.25
 20
410.5
 30
0.0
 11
106.5
 21
410.5
 31
0.0
  0
LINE
  5
83
  8
DIMNSIONS
  6
CONTINUOUS
 62
     7
 10
131.5
 20
412.5
 30
0.0
 11
106.5
 21
412.5
 31
0.0
  0
LINE
  5
84
  8
DIMNSIONS
  6
CONTINUOUS
 62
     7
 10
112.5
 20
412.5
 30
0.0
 11
112.5
 21
410.5
 31
0.0
  0
LINE
  5
85
  8
DIMNSIONS
  6
CONTINUOUS
 62
     7
 10
112.5
 20
410.5
 30
0.0
 11
112.5
 21
394.70833333333331
 31
0.0
  0
LINE
  5
86
  8
DIMNSIONS
  6
CONTINUOUS
 62
     7
 10
112.5
 20
410.5
 30
0.0
 11
114.51011938545069
 21
402.99813232421872
 31
0.0
  0
LINE
  5
87
  8
DIMNSIONS
  6
CONTINUOUS
 62
     7
 10
112.5
 20
410.5
 30
0.0
 11
110.48988061454919
 21
402.99813232421872
 31
0.0
  0
LINE
  5
88
  8
DIMNSIONS
  6
CONTINUOUS
 62
     7
 10
112.5
 20
412.5
 30
0.0
 11
112.5
 21
427.5
 31
0.0
  0
LINE
  5
89
  8
DIMNSIONS
  6
CONTINUOUS
 62
     7
 10
112.5
 20
412.5
 30
0.0
 11
110.48988061454919
 21
420.00186767578111
 31
0.0
  0
LINE
  5
8A
  8
DIMNSIONS
  6
CONTINUOUS
 62
     7
 10
112.5
 20
412.5
 30
0.0
 11
114.51011938545069
 21
420.00186767578111
 31
0.0
  0
TEXT
  5
8B
  8
DIMNSIONS
 62
     7
 10
109.5183333333333
 20
394.70833333333331
 30
0.0
 40
8.1442057291666661
  1
2
 50
90.0
 41
0.7
 11
101.3741276041666
 21
394.70833333333331
 31
0.0
 73
     3
  0
LINE
  5
8C
  8
DIMNSIONS
  6
CONTINUOUS
 62
     7
 10
131.5
 20
150.0
 30
0.0
 11
106.5
 21
150.0
 31
0.0
  0
LINE
  5
8D
  8
DIMNSIONS
  6
CONTINUOUS
 62
     7
 10
131.5
 20
179.0
 30
0.0
 11
106.5
 21
179.0
 31
0.0
  0
LINE
  5
8E
  8
DIMNSIONS
  6
CONTINUOUS
 62
     7
 10
112.5
 20
150.0
 30
0.0
 11
112.5
 21
179.0
 31
0.0
  0
LINE
  5
8F
  8
DIMNSIONS
  6
CONTINUOUS
 62
     7
 10
112.5
 20
150.0
 30
0.0
 11
110.48988061454919
 21
157.5018676757812
 31
0.0
  0
LINE
  5
90
  8
DIMNSIONS
  6
CONTINUOUS
 62
     7
 10
112.5
 20
150.0
 30
0.0
 11
114.51011938545069
 21
157.5018676757812
 31
0.0
  0
LINE
  5
91
  8
DIMNSIONS
  6
CONTINUOUS
 62
     7
 10
112.5
 20
179.0
 30
0.0
 11
114.51011938545069
 21
171.49813232421869
 31
0.0
  0
LINE
  5
92
  8
DIMNSIONS
  6
CONTINUOUS
 62
     7
 10
112.5
 20
179.0
 30
0.0
 11
110.48988061454919
 21
171.49813232421869
 31
0.0
  0
TEXT
  5
93
  8
DIMNSIONS
 62
     7
 10
109.5183333333333
 20
159.20833333333329
 30
0.0
 40
8.1442057291666661
  1
29
 50
90.0
 41
0.7
 11
101.3741276041667
 21
159.20833333333329
 31
0.0
 73
     3
  0
LINE
  5
94
  8
DIMNSIONS
  6
CONTINUOUS
 62
     7
 10
135.25
 20
148.0
 30
0.0
 11
106.5
 21
148.0
 31
0.0
  0
LINE
  5
95
  8
DIMNSIONS
  6
CONTINUOUS
 62
     7
 10
131.5
 20
150.0
 30
0.0
 11
106.5
 21
150.0
 31
0.0
  0
LINE
  5
96
  8
DIMNSIONS
  6
CONTINUOUS
 62
     7
 10
112.5
 20
150.0
 30
0.0
 11
112.5
 21
148.0
 31
0.0
  0
LINE
  5
97
  8
DIMNSIONS
  6
CONTINUOUS
 62
     7
 10
112.5
 20
148.0
 30
0.0
 11
112.5
 21
132.20833333333329
 31
0.0
  0
LINE
  5
98
  8
DIMNSIONS
  6
CONTINUOUS
 62
     7
 10
112.5
 20
148.0
 30
0.0
 11
114.51011938545069
 21
140.49813232421869
 31
0.0
  0
LINE
  5
99
  8
DIMNSIONS
  6
CONTINUOUS
 62
     7
 10
112.5
 20
148.0
 30
0.0
 11
110.48988061454919
 21
140.49813232421869
 31
0.0
  0
LINE
  5
9A
  8
DIMNSIONS
  6
CONTINUOUS
 62
     7
 10
112.5
 20
150.0
 30
0.0
 11
112.5
 21
165.0
 31
0.0
  0
LINE
  5
9B
  8
DIMNSIONS
  6
CONTINUOUS
 62
     7
 10
112.5
 20
150.0
 30
0.0
 11
110.48988061454919
 21
157.5018676757812
 31
0.0
  0
LINE
  5
9C
  8
DIMNSIONS
  6
CONTINUOUS
 62
     7
 10
112.5
 20
150.0
 30
0.0
 11
114.51011938545069
 21
157.5018676757812
 31
0.0
  0
TEXT
  5
9D
  8
DIMNSIONS
 62
     7
 10
109.5183333333333
 20
132.20833333333329
 30
0.0
 40
8.1442057291666661
  1
2
 50
90.0
 41
0.7
 11
101.3741276041666
 21
132.20833333333329
 31
0.0
 73
     3
  0
LINE
  5
9E
  8
DIMNSIONS
  6
CONTINUOUS
 62
     7
 10
137.5
 20
406.5
 30
0.0
 11
137.5
 21
381.5
 31
0.0
  0
LINE
  5
9F
  8
DIMNSIONS
  6
CONTINUOUS
 62
     7
 10
279.5
 20
406.5
 30
0.0
 11
279.5
 21
381.5
 31
0.0
  0
LINE
  5
A0
  8
DIMNSIONS
  6
CONTINUOUS
 62
     7
 10
137.5
 20
387.5
 30
0.0
 11
279.5
 21
387.5
 31
0.0
  0
LINE
  5
A1
  8
DIMNSIONS
  6
CONTINUOUS
 62
     7
 10
137.5
 20
387.5
 30
0.0
 11
145.0018676757812
 21
389.51011938545082
 31
0.0
  0
LINE
  5
A2
  8
DIMNSIONS
  6
CONTINUOUS
 62
     7
 10
137.5
 20
387.5
 30
0.0
 11
145.0018676757812
 21
385.48988061454918
 31
0.0
  0
LINE
  5
A3
  8
DIMNSIONS
  6
CONTINUOUS
 62
     7
 10
279.5
 20
387.5
 30
0.0
 11
271.99813232421877
 21
385.48988061454918
 31
0.0
  0
LINE
  5
A4
  8
DIMNSIONS
  6
CONTINUOUS
 62
     7
 10
279.5
 20
387.5
 30
0.0
 11
271.99813232421877
 21
389.51011938545082
 31
0.0
  0
TEXT
  5
A5
  8
DIMNSIONS
 62
     7
 10
200.5625
 20
390.48166666666663
 30
0.0
 40
8.1442057291666661
  1
142
 41
0.7
 11
200.5625
 21
398.62587239583331
 31
0.0
 73
     3
  0
LINE
  5
A6
  8
DIMNSIONS
  6
CONTINUOUS
 62
     7
 10
131.5
 20
456.25
 30
0.0
 11
106.5
 21
456.25
 31
0.0
  0
LINE
  5
A7
  8
DIMNSIONS
  6
CONTINUOUS
 62
     7
 10
131.5
 20
542.25
 30
0.0
 11
106.5
 21
542.25
 31
0.0
  0
LINE
  5
A8
  8
DIMNSIONS
  6
CONTINUOUS
 62
     7
 10
112.5
 20
456.25
 30
0.0
 11
112.5
 21
542.25
 31
0.0
  0
LINE
  5
A9
  8
DIMNSIONS
  6
CONTINUOUS
 62
     7
 10
112.5
 20
456.25
 30
0.0
 11
110.48988061454919
 21
463.75186767578111
 31
0.0
  0
LINE
  5
AA
  8
DIMNSIONS
  6
CONTINUOUS
 62
     7
 10
112.5
 20
456.25
 30
0.0
 11
114.51011938545069
 21
463.75186767578111
 31
0.0
  0
LINE
  5
AB
  8
DIMNSIONS
  6
CONTINUOUS
 62
     7
 10
112.5
 20
542.25
 30
0.0
 11
114.51011938545069
 21
534.74813232421866
 31
0.0
  0
LINE
  5
AC
  8
DIMNSIONS
  6
CONTINUOUS
 62
     7
 10
112.5
 20
542.25
 30
0.0
 11
110.48988061454919
 21
534.74813232421866
 31
0.0
  0
TEXT
  5
AD
  8
DIMNSIONS
 62
     7
 10
109.5183333333333
 20
493.9583333333332
 30
0.0
 40
8.1442057291666661
  1
86
 50
90.0
 41
0.7
 11
101.3741276041667
 21
493.9583333333332
 31
0.0
 73
     3
  0
LINE
  5
AE
  8
DIMNSIONS
  6
CONTINUOUS
 62
     7
 10
131.5
 20
542.25
 30
0.0
 11
106.5
 21
542.25
 31
0.0
  0
LINE
  5
AF
  8
DIMNSIONS
  6
CONTINUOUS
 62
     7
 10
143.30000000000001
 20
549.75
 30
0.0
 11
106.5
 21
549.75
 31
0.0
  0
LINE
  5
B0
  8
DIMNSIONS
  6
CONTINUOUS
 62
     7
 10
112.5
 20
549.75
 30
0.0
 11
112.5
 21
542.25
 31
0.0
  0
LINE
  5
B1
  8
DIMNSIONS
  6
CONTINUOUS
 62
     7
 10
112.5
 20
542.25
 30
0.0
 11
112.5
 21
527.24999999999989
 31
0.0
  0
LINE
  5
B2
  8
DIMNSIONS
  6
CONTINUOUS
 62
     7
 10
112.5
 20
542.25
 30
0.0
 11
114.51011938545069
 21
534.74813232421866
 31
0.0
  0
LINE
  5
B3
  8
DIMNSIONS
  6
CONTINUOUS
 62
     7
 10
112.5
 20
542.25
 30
0.0
 11
110.48988061454919
 21
534.74813232421866
 31
0.0
  0
LINE
  5
B4
  8
DIMNSIONS
  6
CONTINUOUS
 62
     7
 10
112.5
 20
549.75
 30
0.0
 11
112.5
 21
578.375
 31
0.0
  0
LINE
  5
B5
  8
DIMNSIONS
  6
CONTINUOUS
 62
     7
 10
112.5
 20
549.75
 30
0.0
 11
110.48988061454919
 21
557.25186767578123
 31
0.0
  0
LINE
  5
B6
  8
DIMNSIONS
  6
CONTINUOUS
 62
     7
 10
112.5
 20
549.75
 30
0.0
 11
114.51011938545069
 21
557.25186767578123
 31
0.0
  0
TEXT
  5
B7
  8
DIMNSIONS
 62
     7
 10
109.5183333333333
 20
562.5
 30
0.0
 40
8.1442057291666661
  1
7.5
 50
90.0
 41
0.7
 11
101.3741276041667
 21
562.5
 31
0.0
 73
     3
  0
LINE
  5
B8
  8
DIMNSIONS
  6
CONTINUOUS
 62
     7
 10
137.5
 20
144.0
 30
0.0
 11
137.5
 21
119.0
 31
0.0
  0
LINE
  5
B9
  8
DIMNSIONS
  6
CONTINUOUS
 62
     7
 10
279.5
 20
144.0
 30
0.0
 11
279.5
 21
119.0
 31
0.0
  0
LINE
  5
BA
  8
DIMNSIONS
  6
CONTINUOUS
 62
     7
 10
137.5
 20
125.0
 30
0.0
 11
279.5
 21
125.0
 31
0.0
  0
LINE
  5
BB
  8
DIMNSIONS
  6
CONTINUOUS
 62
     7
 10
137.5
 20
125.0
 30
0.0
 11
145.0018676757812
 21
127.01011938545069
 31
0.0
  0
LINE
  5
BC
  8
DIMNSIONS
  6
CONTINUOUS
 62
     7
 10
137.5
 20
125.0
 30
0.0
 11
145.0018676757812
 21
122.98988061454919
 31
0.0
  0
LINE
  5
BD
  8
DIMNSIONS
  6
CONTINUOUS
 62
     7
 10
279.5
 20
125.0
 30
0.0
 11
271.99813232421877
 21
122.98988061454919
 31
0.0
  0
LINE
  5
BE
  8
DIMNSIONS
  6
CONTINUOUS
 62
     7
 10
279.5
 20
125.0
 30
0.0
 11
271.99813232421877
 21
127.01011938545069
 31
0.0
  0
TEXT
  5
BF
  8
DIMNSIONS
 62
     7
 10
200.5625
 20
127.9816666666666
 30
0.0
 40
8.1442057291666661
  1
142
 41
0.7
 11
200.5625
 21
136.12587239583331
 31
0.0
 73
     3
  0
LINE
  5
C0
  8
DIMNSIONS
  6
CONTINUOUS
 62
     7
 10
131.5
 20
193.75
 30
0.0
 11
106.5
 21
193.75
 31
0.0
  0
LINE
  5
C1
  8
DIMNSIONS
  6
CONTINUOUS
 62
     7
 10
131.5
 20
279.75
 30
0.0
 11
106.5
 21
279.75
 31
0.0
  0
LINE
  5
C2
  8
DIMNSIONS
  6
CONTINUOUS
 62
     7
 10
112.5
 20
193.75
 30
0.0
 11
112.5
 21
279.75
 31
0.0
  0
LINE
  5
C3
  8
DIMNSIONS
  6
CONTINUOUS
 62
     7
 10
112.5
 20
193.75
 30
0.0
 11
110.48988061454919
 21
201.25186767578131
 31
0.0
  0
LINE
  5
C4
  8
DIMNSIONS
  6
CONTINUOUS
 62
     7
 10
112.5
 20
193.75
 30
0.0
 11
114.51011938545069
 21
201.25186767578131
 31
0.0
  0
LINE
  5
C5
  8
DIMNSIONS
  6
CONTINUOUS
 62
     7
 10
112.5
 20
279.75
 30
0.0
 11
114.51011938545069
 21
272.24813232421877
 31
0.0
  0
LINE
  5
C6
  8
DIMNSIONS
  6
CONTINUOUS
 62
     7
 10
112.5
 20
279.75
 30
0.0
 11
110.48988061454919
 21
272.24813232421877
 31
0.0
  0
TEXT
  5
C7
  8
DIMNSIONS
 62
     7
 10
109.5183333333333
 20
231.45833333333329
 30
0.0
 40
8.1442057291666661
  1
86
 50
90.0
 41
0.7
 11
101.3741276041667
 21
231.45833333333329
 31
0.0
 73
     3
  0
LINE
  5
C8
  8
DIMNSIONS
  6
CONTINUOUS
 62
     7
 10
131.5
 20
279.75
 30
0.0
 11
106.5
 21
279.75
 31
0.0
  0
LINE
  5
C9
  8
DIMNSIONS
  6
CONTINUOUS
 62
     7
 10
221.37228951068579
 20
287.25
 30
0.0
 11
106.5
 21
287.25
 31
0.0
  0
LINE
  5
CA
  8
DIMNSIONS
  6
CONTINUOUS
 62
     7
 10
112.5
 20
287.25
 30
0.0
 11
112.5
 21
279.75
 31
0.0
  0
LINE
  5
CB
  8
DIMNSIONS
  6
CONTINUOUS
 62
     7
 10
112.5
 20
279.75
 30
0.0
 11
112.5
 21
264.75
 31
0.0
  0
LINE
  5
CC
  8
DIMNSIONS
  6
CONTINUOUS
 62
     7
 10
112.5
 20
279.75
 30
0.0
 11
114.51011938545069
 21
272.24813232421877
 31
0.0
  0
LINE
  5
CD
  8
DIMNSIONS
  6
CONTINUOUS
 62
     7
 10
112.5
 20
279.75
 30
0.0
 11
110.48988061454919
 21
272.24813232421877
 31
0.0
  0
LINE
  5
CE
  8
DIMNSIONS
  6
CONTINUOUS
 62
     7
 10
112.5
 20
287.25
 30
0.0
 11
112.5
 21
315.875
 31
0.0
  0
LINE
  5
CF
  8
DIMNSIONS
  6
CONTINUOUS
 62
     7
 10
112.5
 20
287.25
 30
0.0
 11
110.48988061454919
 21
294.75186767578123
 31
0.0
  0
LINE
  5
D0
  8
DIMNSIONS
  6
CONTINUOUS
 62
     7
 10
112.5
 20
287.25
 30
0.0
 11
114.51011938545069
 21
294.75186767578123
 31
0.0
  0
TEXT
  5
D1
  8
DIMNSIONS
 62
     7
 10
109.5183333333333
 20
300.0
 30
0.0
 40
8.1442057291666661
  1
7.5
 50
90.0
 41
0.7
 11
101.3741276041667
 21
300.0
 31
0.0
 73
     3
  0
TEXT
  5
D2
  8
DATA
 62
     7
 10
449.99999999999989
 20
62.926524856753723
 30
0.0
 40
7.3297851562499989
  1
EXT-DVI-AUDIO-CAT5
 41
0.7
 11
449.99999999999989
 21
70.256310013003713
 31
0.0
 73
     3
  0
TEXT
  5
D3
  8
DATA
 62
     7
 10
60.0
 20
42.713999999999977
 30
0.0
 40
4.8865234374999993
  1
仕様および外観は予告なく変更されることがありますので、ご了承ください。
 41
0.7
 11
60.0
 21
47.600523437499987
 31
0.0
 73
     3
  0
TEXT
  5
D4
  8
DATA
 62
     7
 10
449.9713515443359
 20
85.047561257843299
 30
0.0
 40
7.3297851562499989
  1
Gefen
 41
0.7
 11
449.9713515443359
 21
92.377346414093296
 31
0.0
 73
     3
  0
TEXT
  5
D5
  8
DATA
 62
     7
 10
445.3494740600226
 20
74.972854856753685
 30
0.0
 40
4.8865234374999993
  1
DVI延長機
 41
0.7
 11
445.3494740600226
 21
79.859378294253702
 31
0.0
 73
     3
  0
LINE
  5
D6
  8
DATA
  6
CONTINUOUS
 62
     7
 10
137.5
 20
412.5
 30
0.0
 11
137.5
 21
441.5
 31
0.0
  0
LINE
  5
D7
  8
DATA
  6
CONTINUOUS
 62
     7
 10
137.5
 20
456.25
 30
0.0
 11
137.5
 21
542.25
 31
0.0
  0
TEXT
  5
D8
  8
DATA
 62
     7
 10
160.5221941340136
 20
362.85101501180162
 30
0.0
 40
8.1442057291666661
  1
DVI AUDIO(センダー)
 41
0.7
 11
160.5221941340136
 21
370.99522074096831
 31
0.0
 73
     3
  0
LINE
  5
D9
  8
DATA
  6
CONTINUOUS
 62
     7
 10
137.5
 20
412.5
 30
0.0
 11
137.5
 21
441.5
 31
0.0
  0
LINE
  5
DA
  8
DATA
  6
CONTINUOUS
 62
     7
 10
149.5
 20
412.5
 30
0.0
 11
137.5
 21
412.5
 31
0.0
  0
LINE
  5
DB
  8
DATA
  6
CONTINUOUS
 62
     7
 10
137.5
 20
456.25
 30
0.0
 11
279.5
 21
456.25
 31
0.0
  0
LINE
  5
DC
  8
DATA
  6
CONTINUOUS
 62
     7
 10
191.44422295286861
 20
423.19667786273487
 30
0.0
 11
191.44422295286861
 21
436.49667786273488
 31
0.0
  0
LINE
  5
DD
  8
DATA
  6
CONTINUOUS
 62
     7
 10
207.1442229528686
 20
423.19667786273487
 30
0.0
 11
207.1442229528686
 21
436.49667786273488
 31
0.0
  0
LINE
  5
DE
  8
DATA
  6
CONTINUOUS
 62
     7
 10
207.1442229528686
 20
436.49667786273488
 30
0.0
 11
191.44422295286861
 21
436.49667786273488
 31
0.0
  0
LINE
  5
DF
  8
DATA
  6
CONTINUOUS
 62
     7
 10
207.1442229528686
 20
423.19667786273487
 30
0.0
 11
191.44422295286861
 21
423.19667786273487
 31
0.0
  0
LINE
  5
E0
  8
DATA
  6
CONTINUOUS
 62
     7
 10
205.44422295286861
 20
426.19667786273487
 30
0.0
 11
193.14422295286849
 21
426.19667786273487
 31
0.0
  0
LINE
  5
E1
  8
DATA
  6
CONTINUOUS
 62
     7
 10
205.44422295286861
 20
426.19667786273487
 30
0.0
 11
205.44422295286861
 21
433.49667786273483
 31
0.0
  0
LINE
  5
E2
  8
DATA
  6
CONTINUOUS
 62
     7
 10
193.14422295286849
 20
426.19667786273487
 30
0.0
 11
193.14422295286849
 21
433.49667786273483
 31
0.0
  0
LINE
  5
E3
  8
DATA
  6
CONTINUOUS
 62
     7
 10
201.5192229528686
 20
436.49667786273488
 30
0.0
 11
201.5192229528686
 21
434.99667786273483
 31
0.0
  0
LINE
  5
E4
  8
DATA
  6
CONTINUOUS
 62
     7
 10
197.06922295286861
 20
434.99667786273483
 30
0.0
 11
197.06922295286861
 21
436.49667786273488
 31
0.0
  0
LINE
  5
E5
  8
DATA
  6
CONTINUOUS
 62
     7
 10
202.6442229528686
 20
434.99667786273483
 30
0.0
 11
201.5192229528686
 21
434.99667786273483
 31
0.0
  0
LINE
  5
E6
  8
DATA
  6
CONTINUOUS
 62
     7
 10
197.06922295286861
 20
434.99667786273483
 30
0.0
 11
195.94422295286861
 21
434.99667786273483
 31
0.0
  0
LINE
  5
E7
  8
DATA
  6
CONTINUOUS
 62
     7
 10
205.44422295286861
 20
433.49667786273483
 30
0.0
 11
202.6442229528686
 21
433.49667786273483
 31
0.0
  0
LINE
  5
E8
  8
DATA
  6
CONTINUOUS
 62
     7
 10
195.94422295286861
 20
433.49667786273483
 30
0.0
 11
193.14422295286849
 21
433.49667786273483
 31
0.0
  0
LINE
  5
E9
  8
DATA
  6
CONTINUOUS
 62
     7
 10
202.6442229528686
 20
434.99667786273483
 30
0.0
 11
202.6442229528686
 21
433.49667786273483
 31
0.0
  0
LINE
  5
EA
  8
DATA
  6
CONTINUOUS
 62
     7
 10
195.94422295286861
 20
433.49667786273483
 30
0.0
 11
195.94422295286861
 21
434.99667786273483
 31
0.0
  0
LINE
  5
EB
  8
DATA
  6
CONTINUOUS
 62
     7
 10
212.74739589464491
 20
423.19667786273487
 30
0.0
 11
212.74739589464491
 21
436.49667786273488
 31
0.0
  0
LINE
  5
EC
  8
DATA
  6
CONTINUOUS
 62
     7
 10
228.4473958946449
 20
423.19667786273487
 30
0.0
 11
228.4473958946449
 21
436.49667786273488
 31
0.0
  0
LINE
  5
ED
  8
DATA
  6
CONTINUOUS
 62
     7
 10
228.4473958946449
 20
436.49667786273488
 30
0.0
 11
212.74739589464491
 21
436.49667786273488
 31
0.0
  0
LINE
  5
EE
  8
DATA
  6
CONTINUOUS
 62
     7
 10
228.4473958946449
 20
423.19667786273487
 30
0.0
 11
212.74739589464491
 21
423.19667786273487
 31
0.0
  0
LINE
  5
EF
  8
DATA
  6
CONTINUOUS
 62
     7
 10
226.74739589464491
 20
426.19667786273487
 30
0.0
 11
214.44739589464481
 21
426.19667786273487
 31
0.0
  0
LINE
  5
F0
  8
DATA
  6
CONTINUOUS
 62
     7
 10
226.74739589464491
 20
426.19667786273487
 30
0.0
 11
226.74739589464491
 21
433.49667786273483
 31
0.0
  0
LINE
  5
F1
  8
DATA
  6
CONTINUOUS
 62
     7
 10
214.44739589464481
 20
426.19667786273487
 30
0.0
 11
214.44739589464481
 21
433.49667786273483
 31
0.0
  0
LINE
  5
F2
  8
DATA
  6
CONTINUOUS
 62
     7
 10
222.82239589464481
 20
436.49667786273488
 30
0.0
 11
222.82239589464481
 21
434.99667786273483
 31
0.0
  0
LINE
  5
F3
  8
DATA
  6
CONTINUOUS
 62
     7
 10
218.37239589464491
 20
434.99667786273483
 30
0.0
 11
218.37239589464491
 21
436.49667786273488
 31
0.0
  0
LINE
  5
F4
  8
DATA
  6
CONTINUOUS
 62
     7
 10
223.94739589464481
 20
434.99667786273483
 30
0.0
 11
222.82239589464481
 21
434.99667786273483
 31
0.0
  0
LINE
  5
F5
  8
DATA
  6
CONTINUOUS
 62
     7
 10
218.37239589464491
 20
434.99667786273483
 30
0.0
 11
217.24739589464491
 21
434.99667786273483
 31
0.0
  0
LINE
  5
F6
  8
DATA
  6
CONTINUOUS
 62
     7
 10
226.74739589464491
 20
433.49667786273483
 30
0.0
 11
223.94739589464481
 21
433.49667786273483
 31
0.0
  0
LINE
  5
F7
  8
DATA
  6
CONTINUOUS
 62
     7
 10
217.24739589464491
 20
433.49667786273483
 30
0.0
 11
214.44739589464481
 21
433.49667786273483
 31
0.0
  0
LINE
  5
F8
  8
DATA
  6
CONTINUOUS
 62
     7
 10
223.94739589464481
 20
434.99667786273483
 30
0.0
 11
223.94739589464481
 21
433.49667786273483
 31
0.0
  0
LINE
  5
F9
  8
DATA
  6
CONTINUOUS
 62
     7
 10
217.24739589464491
 20
433.49667786273483
 30
0.0
 11
217.24739589464491
 21
434.99667786273483
 31
0.0
  0
TEXT
  5
FA
  8
DATA
 62
     7
 10
191.87253248332851
 20
416.9747322199712
 30
0.0
 40
2.4432617187500001
  1
DDC/Audio
 41
0.7
 11
191.87253248332851
 21
419.41799393872122
 31
0.0
 73
     3
  0
TEXT
  5
FB
  8
DATA
 62
     7
 10
216.38335643302781
 20
416.9747322199712
 30
0.0
 40
2.4432617187500001
  1
Video
 41
0.7
 11
216.38335643302781
 21
419.41799393872122
 31
0.0
 73
     3
  0
TEXT
  5
FC
  8
DATA
 62
     7
 10
191.2428325836436
 20
529.29015250093244
 30
0.0
 40
9.7730468749999986
  1
DVI
 50
180.0
 41
0.7
 11
191.2428325836436
 21
519.51710562593234
 31
0.0
 73
     3
  0
TEXT
  5
FD
  8
DATA
 62
     7
 10
170.15619749837421
 20
529.36314117390918
 30
0.0
 40
5.7009440104166647
  1
AUDIO
 50
180.0
 41
0.7
 11
170.15619749837421
 21
523.66219716349235
 31
0.0
 73
     3
  0
TEXT
  5
FE
  8
DATA
 62
     7
 10
175.3746869622382
 20
536.40033503574023
 30
0.0
 40
4.8865234374999993
  1
extenderS
 50
180.0
 41
0.7
 11
175.3746869622382
 21
531.51381159824007
 31
0.0
 73
     3
  0
LINE
  5
FF
  8
DATA
  6
CONTINUOUS
 62
     7
 10
206.60715732840859
 20
547.24999999993372
 30
0.0
 11
206.60715732840859
 21
542.24999999993372
 31
0.0
  0
LINE
  5
100
  8
DATA
  6
CONTINUOUS
 62
     7
 10
211.2836945088446
 20
547.24999999993372
 30
0.0
 11
211.2836945088446
 21
542.24999999993372
 31
0.0
  0
LINE
  5
101
  8
DATA
  6
CONTINUOUS
 62
     7
 10
239.10715732840981
 20
547.24999999993372
 30
0.0
 11
239.10715732840981
 21
542.24999999993372
 31
0.0
  0
LINE
  5
102
  8
DATA
  6
CONTINUOUS
 62
     7
 10
243.78369450884571
 20
547.24999999993372
 30
0.0
 11
243.78369450884571
 21
542.24999999993372
 31
0.0
  0
LINE
  5
103
  8
DATA
  6
CONTINUOUS
 62
     7
 10
213.25480166621941
 20
547.24999999993372
 30
0.0
 11
213.25480166621941
 21
542.24999999993372
 31
0.0
  0
LINE
  5
104
  8
DATA
  6
CONTINUOUS
 62
     7
 10
237.1407977365748
 20
547.24999999993372
 30
0.0
 11
237.1407977365748
 21
542.24999999993372
 31
0.0
  0
LINE
  5
105
  8
DATA
  6
CONTINUOUS
 62
     7
 10
206.60715732840859
 20
547.24999999993372
 30
0.0
 11
211.2836945088446
 21
547.24999999993372
 31
0.0
  0
LINE
  5
106
  8
DATA
  6
CONTINUOUS
 62
     7
 10
213.25480166621941
 20
547.24999999993372
 30
0.0
 11
237.1407977365748
 21
547.24999999993372
 31
0.0
  0
LINE
  5
107
  8
DATA
  6
CONTINUOUS
 62
     7
 10
239.10715732840981
 20
547.24999999993372
 30
0.0
 11
243.78369450884571
 21
547.24999999993372
 31
0.0
  0
ARC
  5
108
  8
DATA
  6
CONTINUOUS
 62
     7
 10
252.51078616211419
 20
542.75944963675863
 30
0.0
 40
1.4500000000000119
 50
0.1007759528213198
 51
181.40488957544099
  0
LINE
  5
109
  8
DATA
  6
CONTINUOUS
 62
     7
 10
253.9607839192324
 20
542.76199999980884
 30
0.0
 11
253.9607839192324
 21
542.24999999980878
 31
0.0
  0
LINE
  5
10A
  8
DATA
  6
CONTINUOUS
 62
     7
 10
251.06122203049179
 20
542.79499999980885
 30
0.0
 11
251.06122203049179
 21
542.24999999980878
 31
0.0
  0
LINE
  5
10B
  8
DATA
  6
CONTINUOUS
 62
     7
 10
279.5
 20
441.5
 30
0.0
 11
137.5
 21
441.5
 31
0.0
  0
LINE
  5
10C
  8
DATA
  6
CONTINUOUS
 62
     7
 10
279.5
 20
414.5
 30
0.0
 11
137.5
 21
414.5
 31
0.0
  0
LINE
  5
10D
  8
DATA
  6
CONTINUOUS
 62
     7
 10
149.5
 20
412.5
 30
0.0
 11
149.5
 21
414.5
 31
0.0
  0
LINE
  5
10E
  8
DATA
  6
CONTINUOUS
 62
     7
 10
140.7077186008068
 20
410.5
 30
0.0
 11
139.50771860080681
 21
412.5
 31
0.0
  0
LINE
  5
10F
  8
DATA
  6
CONTINUOUS
 62
     7
 10
145.7077186008068
 20
410.5
 30
0.0
 11
146.90771860080679
 21
412.5
 31
0.0
  0
LINE
  5
110
  8
DATA
  6
CONTINUOUS
 62
     7
 10
140.7077186008068
 20
410.5
 30
0.0
 11
145.7077186008068
 21
410.5
 31
0.0
  0
LINE
  5
111
  8
DATA
  6
CONTINUOUS
 62
     7
 10
191.44162825259301
 20
455.75
 30
0.0
 11
207.14162825259291
 21
455.75
 31
0.0
  0
LINE
  5
112
  8
DATA
  6
CONTINUOUS
 62
     7
 10
212.7448011943693
 20
455.75
 30
0.0
 11
228.44480119436921
 21
455.75
 31
0.0
  0
LINE
  5
113
  8
DATA
  6
CONTINUOUS
 62
     7
 10
191.44162825259301
 20
455.75
 30
0.0
 11
191.44162825259301
 21
456.25
 31
0.0
  0
LINE
  5
114
  8
DATA
  6
CONTINUOUS
 62
     7
 10
207.14162825259291
 20
455.75
 30
0.0
 11
207.14162825259291
 21
456.25
 31
0.0
  0
LINE
  5
115
  8
DATA
  6
CONTINUOUS
 62
     7
 10
212.7448011943693
 20
455.75
 30
0.0
 11
212.7448011943693
 21
456.25
 31
0.0
  0
LINE
  5
116
  8
DATA
  6
CONTINUOUS
 62
     7
 10
228.44480119436921
 20
455.75
 30
0.0
 11
228.44480119436921
 21
456.25
 31
0.0
  0
LINE
  5
117
  8
DATA
  6
CONTINUOUS
 62
     7
 10
279.5
 20
412.5
 30
0.0
 11
279.5
 21
441.5
 31
0.0
  0
LINE
  5
118
  8
DATA
  6
CONTINUOUS
 62
     7
 10
279.5
 20
412.5
 30
0.0
 11
267.5
 21
412.5
 31
0.0
  0
LINE
  5
119
  8
DATA
  6
CONTINUOUS
 62
     7
 10
267.5
 20
412.5
 30
0.0
 11
267.5
 21
414.5
 31
0.0
  0
LINE
  5
11A
  8
DATA
  6
CONTINUOUS
 62
     7
 10
276.29228139919309
 20
410.5
 30
0.0
 11
277.49228139919319
 21
412.5
 31
0.0
  0
LINE
  5
11B
  8
DATA
  6
CONTINUOUS
 62
     7
 10
271.29228139919309
 20
410.5
 30
0.0
 11
270.0922813991931
 21
412.5
 31
0.0
  0
LINE
  5
11C
  8
DATA
  6
CONTINUOUS
 62
     7
 10
276.29228139919309
 20
410.5
 30
0.0
 11
271.29228139919309
 21
410.5
 31
0.0
  0
LINE
  5
11D
  8
DATA
  6
CONTINUOUS
 62
     7
 10
137.5
 20
542.25
 30
0.0
 11
279.5
 21
542.25
 31
0.0
  0
LINE
  5
11E
  8
DATA
  6
CONTINUOUS
 62
     7
 10
137.5
 20
591.5
 30
0.0
 11
137.5
 21
562.5
 31
0.0
  0
LINE
  5
11F
  8
DATA
  6
CONTINUOUS
 62
     7
 10
137.5
 20
591.5
 30
0.0
 11
137.5
 21
562.5
 31
0.0
  0
LINE
  5
120
  8
DATA
  6
CONTINUOUS
 62
     7
 10
149.5
 20
591.5
 30
0.0
 11
137.5
 21
591.5
 31
0.0
  0
LINE
  5
121
  8
DATA
  6
CONTINUOUS
 62
     7
 10
279.5
 20
562.5
 30
0.0
 11
137.5
 21
562.5
 31
0.0
  0
LINE
  5
122
  8
DATA
  6
CONTINUOUS
 62
     7
 10
279.5
 20
589.5
 30
0.0
 11
137.5
 21
589.5
 31
0.0
  0
LINE
  5
123
  8
DATA
  6
CONTINUOUS
 62
     7
 10
149.5
 20
591.5
 30
0.0
 11
149.5
 21
589.5
 31
0.0
  0
LINE
  5
124
  8
DATA
  6
CONTINUOUS
 62
     7
 10
140.7077186008068
 20
593.5
 30
0.0
 11
139.50771860080681
 21
591.5
 31
0.0
  0
LINE
  5
125
  8
DATA
  6
CONTINUOUS
 62
     7
 10
145.7077186008068
 20
593.5
 30
0.0
 11
146.90771860080679
 21
591.5
 31
0.0
  0
LINE
  5
126
  8
DATA
  6
CONTINUOUS
 62
     7
 10
140.7077186008068
 20
593.5
 30
0.0
 11
145.7077186008068
 21
593.5
 31
0.0
  0
LINE
  5
127
  8
DATA
  6
CONTINUOUS
 62
     7
 10
279.5
 20
591.5
 30
0.0
 11
279.5
 21
562.5
 31
0.0
  0
LINE
  5
128
  8
DATA
  6
CONTINUOUS
 62
     7
 10
279.5
 20
591.5
 30
0.0
 11
267.5
 21
591.5
 31
0.0
  0
LINE
  5
129
  8
DATA
  6
CONTINUOUS
 62
     7
 10
267.5
 20
591.5
 30
0.0
 11
267.5
 21
589.5
 31
0.0
  0
LINE
  5
12A
  8
DATA
  6
CONTINUOUS
 62
     7
 10
276.29228139919309
 20
593.5
 30
0.0
 11
277.49228139919319
 21
591.5
 31
0.0
  0
LINE
  5
12B
  8
DATA
  6
CONTINUOUS
 62
     7
 10
271.29228139919309
 20
593.5
 30
0.0
 11
270.0922813991931
 21
591.5
 31
0.0
  0
LINE
  5
12C
  8
DATA
  6
CONTINUOUS
 62
     7
 10
276.29228139919309
 20
593.5
 30
0.0
 11
271.29228139919309
 21
593.5
 31
0.0
  0
CIRCLE
  5
12D
  8
DATA
  6
CONTINUOUS
 62
     7
 10
153.5
 20
573.5
 30
0.0
 40
4.1999999999999877
  0
CIRCLE
  5
12E
  8
DATA
  6
CONTINUOUS
 62
     7
 10
168.5
 20
573.5
 30
0.0
 40
4.200000000000002
  0
CIRCLE
  5
12F
  8
DATA
  6
CONTINUOUS
 62
     7
 10
184.5
 20
573.5
 30
0.0
 40
4.200000000000002
  0
CIRCLE
  5
130
  8
DATA
  6
CONTINUOUS
 62
     7
 10
153.5
 20
573.5
 30
0.0
 40
1.75
  0
CIRCLE
  5
131
  8
DATA
  6
CONTINUOUS
 62
     7
 10
168.5
 20
573.5
 30
0.0
 40
1.75
  0
CIRCLE
  5
132
  8
DATA
  6
CONTINUOUS
 62
     7
 10
184.5
 20
573.5
 30
0.0
 40
1.75
  0
POLYLINE
  5
133
  8
DATA
  6
CONTINUOUS
 62
     7
 66
     1
 10
0.0
 20
0.0
 30
0.0
 70
     1
  0
VERTEX
  5
488
  8
DATA
  6
CONTINUOUS
 62
     7
 10
192.5
 20
581.4255673291824
 30
0.0
  0
VERTEX
  5
489
  8
DATA
  6
CONTINUOUS
 62
     7
 10
202.5
 20
581.4255673291824
 30
0.0
  0
VERTEX
  5
48A
  8
DATA
  6
CONTINUOUS
 62
     7
 10
202.5
 20
571.42556732918229
 30
0.0
  0
VERTEX
  5
48B
  8
DATA
  6
CONTINUOUS
 62
     7
 10
192.5
 20
571.42556732918229
 30
0.0
  0
SEQEND
  5
48C
  8
DATA
  6
CONTINUOUS
 62
     7
  0
TEXT
  5
13A
  8
DATA
 62
     7
 10
267.87572265403543
 20
584.27947892335374
 30
0.0
 40
2.8097509765624999
  1
+5V DC
 50
180.0
 41
0.7
 11
267.87572265403543
 21
581.46972794679107
 31
0.0
 73
     3
  0
TEXT
  5
13B
  8
DATA
 62
     7
 10
257.53069338902901
 20
569.73466463495686
 30
0.0
 40
2.8097509765624999
  1
Power
 50
180.0
 41
0.7
 11
257.53069338902901
 21
566.9249136583943
 31
0.0
 73
     3
  0
CIRCLE
  5
13C
  8
DATA
  6
CONTINUOUS
 62
     7
 10
241.44523204481379
 20
575.46553332201631
 30
0.0
 40
1.175000000000068
  0
POLYLINE
  5
13D
  8
DATA
  6
CONTINUOUS
 62
     7
 66
     1
 10
0.0
 20
0.0
 30
0.0
 70
     1
  0
VERTEX
  5
48D
  8
DATA
  6
CONTINUOUS
 62
     7
 10
241.44523204481379
 20
572.76553332201627
 30
0.0
  0
VERTEX
  5
48E
  8
DATA
  6
CONTINUOUS
 62
     7
 10
243.78350063503169
 20
574.1155333220164
 30
0.0
  0
VERTEX
  5
48F
  8
DATA
  6
CONTINUOUS
 62
     7
 10
243.78350063503169
 20
576.81553332201634
 30
0.0
  0
VERTEX
  5
490
  8
DATA
  6
CONTINUOUS
 62
     7
 10
241.44523204481379
 20
578.16553332201636
 30
0.0
  0
VERTEX
  5
491
  8
DATA
  6
CONTINUOUS
 62
     7
 10
239.10696345459581
 20
576.81553332201634
 30
0.0
  0
VERTEX
  5
492
  8
DATA
  6
CONTINUOUS
 62
     7
 10
239.10696345459581
 20
574.1155333220164
 30
0.0
  0
SEQEND
  5
493
  8
DATA
  6
CONTINUOUS
 62
     7
  0
CIRCLE
  5
146
  8
DATA
  6
CONTINUOUS
 62
     7
 10
208.94523204481331
 20
575.46553332201631
 30
0.0
 40
1.175000000000068
  0
POLYLINE
  5
147
  8
DATA
  6
CONTINUOUS
 62
     7
 66
     1
 10
0.0
 20
0.0
 30
0.0
 70
     1
  0
VERTEX
  5
494
  8
DATA
  6
CONTINUOUS
 62
     7
 10
208.94523204481331
 20
572.76553332201627
 30
0.0
  0
VERTEX
  5
495
  8
DATA
  6
CONTINUOUS
 62
     7
 10
211.28350063503129
 20
574.1155333220164
 30
0.0
  0
VERTEX
  5
496
  8
DATA
  6
CONTINUOUS
 62
     7
 10
211.28350063503129
 20
576.81553332201634
 30
0.0
  0
VERTEX
  5
497
  8
DATA
  6
CONTINUOUS
 62
     7
 10
208.94523204481331
 20
578.16553332201636
 30
0.0
  0
VERTEX
  5
498
  8
DATA
  6
CONTINUOUS
 62
     7
 10
206.6069634545953
 20
576.81553332201634
 30
0.0
  0
VERTEX
  5
499
  8
DATA
  6
CONTINUOUS
 62
     7
 10
206.6069634545953
 20
574.1155333220164
 30
0.0
  0
SEQEND
  5
49A
  8
DATA
  6
CONTINUOUS
 62
     7
  0
LINE
  5
150
  8
DATA
  6
CONTINUOUS
 62
     7
 10
236.14513693200561
 20
571.54053332201624
 30
0.0
 11
214.2453271576214
 21
571.54053332201624
 31
0.0
  0
LINE
  5
151
  8
DATA
  6
CONTINUOUS
 62
     7
 10
214.80424435507359
 20
579.39053332201627
 30
0.0
 11
235.5862197345532
 21
579.39053332201627
 31
0.0
  0
POLYLINE
  5
152
  8
DATA
  6
CONTINUOUS
 62
     7
 66
     1
 10
0.0
 20
0.0
 30
0.0
 70
     1
  0
VERTEX
  5
49B
  8
DATA
  6
CONTINUOUS
 62
     7
 10
234.66529821599309
 20
576.23053332201619
 30
0.0
  0
VERTEX
  5
49C
  8
DATA
  6
CONTINUOUS
 62
     7
 10
236.19529821599309
 20
576.23053332201619
 30
0.0
  0
VERTEX
  5
49D
  8
DATA
  6
CONTINUOUS
 62
     7
 10
236.19529821599309
 20
574.70053332201633
 30
0.0
  0
VERTEX
  5
49E
  8
DATA
  6
CONTINUOUS
 62
     7
 10
234.66529821599309
 20
574.70053332201633
 30
0.0
  0
SEQEND
  5
49F
  8
DATA
  6
CONTINUOUS
 62
     7
  0
POLYLINE
  5
159
  8
DATA
  6
CONTINUOUS
 62
     7
 66
     1
 10
0.0
 20
0.0
 30
0.0
 70
     1
  0
VERTEX
  5
4A0
  8
DATA
  6
CONTINUOUS
 62
     7
 10
232.66529821599309
 20
576.23053332201619
 30
0.0
  0
VERTEX
  5
4A1
  8
DATA
  6
CONTINUOUS
 62
     7
 10
234.19529821599309
 20
576.23053332201619
 30
0.0
  0
VERTEX
  5
4A2
  8
DATA
  6
CONTINUOUS
 62
     7
 10
234.19529821599309
 20
574.70053332201633
 30
0.0
  0
VERTEX
  5
4A3
  8
DATA
  6
CONTINUOUS
 62
     7
 10
232.66529821599309
 20
574.70053332201633
 30
0.0
  0
SEQEND
  5
4A4
  8
DATA
  6
CONTINUOUS
 62
     7
  0
POLYLINE
  5
160
  8
DATA
  6
CONTINUOUS
 62
     7
 66
     1
 10
0.0
 20
0.0
 30
0.0
 70
     1
  0
VERTEX
  5
4A5
  8
DATA
  6
CONTINUOUS
 62
     7
 10
230.66529821599309
 20
576.23053332201619
 30
0.0
  0
VERTEX
  5
4A6
  8
DATA
  6
CONTINUOUS
 62
     7
 10
232.19529821599309
 20
576.23053332201619
 30
0.0
  0
VERTEX
  5
4A7
  8
DATA
  6
CONTINUOUS
 62
     7
 10
232.19529821599309
 20
574.70053332201633
 30
0.0
  0
VERTEX
  5
4A8
  8
DATA
  6
CONTINUOUS
 62
     7
 10
230.66529821599309
 20
574.70053332201633
 30
0.0
  0
SEQEND
  5
4A9
  8
DATA
  6
CONTINUOUS
 62
     7
  0
POLYLINE
  5
167
  8
DATA
  6
CONTINUOUS
 62
     7
 66
     1
 10
0.0
 20
0.0
 30
0.0
 70
     1
  0
VERTEX
  5
4AA
  8
DATA
  6
CONTINUOUS
 62
     7
 10
228.66529821599309
 20
576.23053332201619
 30
0.0
  0
VERTEX
  5
4AB
  8
DATA
  6
CONTINUOUS
 62
     7
 10
230.19529821599309
 20
576.23053332201619
 30
0.0
  0
VERTEX
  5
4AC
  8
DATA
  6
CONTINUOUS
 62
     7
 10
230.19529821599309
 20
574.70053332201633
 30
0.0
  0
VERTEX
  5
4AD
  8
DATA
  6
CONTINUOUS
 62
     7
 10
228.66529821599309
 20
574.70053332201633
 30
0.0
  0
SEQEND
  5
4AE
  8
DATA
  6
CONTINUOUS
 62
     7
  0
POLYLINE
  5
16E
  8
DATA
  6
CONTINUOUS
 62
     7
 66
     1
 10
0.0
 20
0.0
 30
0.0
 70
     1
  0
VERTEX
  5
4AF
  8
DATA
  6
CONTINUOUS
 62
     7
 10
226.665298215993
 20
576.23053332201619
 30
0.0
  0
VERTEX
  5
4B0
  8
DATA
  6
CONTINUOUS
 62
     7
 10
228.19529821599309
 20
576.23053332201619
 30
0.0
  0
VERTEX
  5
4B1
  8
DATA
  6
CONTINUOUS
 62
     7
 10
228.19529821599309
 20
574.70053332201633
 30
0.0
  0
VERTEX
  5
4B2
  8
DATA
  6
CONTINUOUS
 62
     7
 10
226.665298215993
 20
574.70053332201633
 30
0.0
  0
SEQEND
  5
4B3
  8
DATA
  6
CONTINUOUS
 62
     7
  0
POLYLINE
  5
175
  8
DATA
  6
CONTINUOUS
 62
     7
 66
     1
 10
0.0
 20
0.0
 30
0.0
 70
     1
  0
VERTEX
  5
4B4
  8
DATA
  6
CONTINUOUS
 62
     7
 10
224.66529821599289
 20
576.23053332201619
 30
0.0
  0
VERTEX
  5
4B5
  8
DATA
  6
CONTINUOUS
 62
     7
 10
226.19529821599289
 20
576.23053332201619
 30
0.0
  0
VERTEX
  5
4B6
  8
DATA
  6
CONTINUOUS
 62
     7
 10
226.19529821599289
 20
574.70053332201633
 30
0.0
  0
VERTEX
  5
4B7
  8
DATA
  6
CONTINUOUS
 62
     7
 10
224.66529821599289
 20
574.70053332201633
 30
0.0
  0
SEQEND
  5
4B8
  8
DATA
  6
CONTINUOUS
 62
     7
  0
POLYLINE
  5
17C
  8
DATA
  6
CONTINUOUS
 62
     7
 66
     1
 10
0.0
 20
0.0
 30
0.0
 70
     1
  0
VERTEX
  5
4B9
  8
DATA
  6
CONTINUOUS
 62
     7
 10
222.66529821599281
 20
576.23053332201619
 30
0.0
  0
VERTEX
  5
4BA
  8
DATA
  6
CONTINUOUS
 62
     7
 10
224.19529821599281
 20
576.23053332201619
 30
0.0
  0
VERTEX
  5
4BB
  8
DATA
  6
CONTINUOUS
 62
     7
 10
224.19529821599281
 20
574.70053332201633
 30
0.0
  0
VERTEX
  5
4BC
  8
DATA
  6
CONTINUOUS
 62
     7
 10
222.66529821599281
 20
574.70053332201633
 30
0.0
  0
SEQEND
  5
4BD
  8
DATA
  6
CONTINUOUS
 62
     7
  0
POLYLINE
  5
183
  8
DATA
  6
CONTINUOUS
 62
     7
 66
     1
 10
0.0
 20
0.0
 30
0.0
 70
     1
  0
VERTEX
  5
4BE
  8
DATA
  6
CONTINUOUS
 62
     7
 10
220.66529821599249
 20
576.23053332201619
 30
0.0
  0
VERTEX
  5
4BF
  8
DATA
  6
CONTINUOUS
 62
     7
 10
222.19529821599261
 20
576.23053332201619
 30
0.0
  0
VERTEX
  5
4C0
  8
DATA
  6
CONTINUOUS
 62
     7
 10
222.19529821599261
 20
574.70053332201633
 30
0.0
  0
VERTEX
  5
4C1
  8
DATA
  6
CONTINUOUS
 62
     7
 10
220.66529821599249
 20
574.70053332201633
 30
0.0
  0
SEQEND
  5
4C2
  8
DATA
  6
CONTINUOUS
 62
     7
  0
POLYLINE
  5
18A
  8
DATA
  6
CONTINUOUS
 62
     7
 66
     1
 10
0.0
 20
0.0
 30
0.0
 70
     1
  0
VERTEX
  5
4C3
  8
DATA
  6
CONTINUOUS
 62
     7
 10
234.66529821599309
 20
574.23053332201607
 30
0.0
  0
VERTEX
  5
4C4
  8
DATA
  6
CONTINUOUS
 62
     7
 10
236.19529821599309
 20
574.23053332201607
 30
0.0
  0
VERTEX
  5
4C5
  8
DATA
  6
CONTINUOUS
 62
     7
 10
236.19529821599309
 20
572.70053332201633
 30
0.0
  0
VERTEX
  5
4C6
  8
DATA
  6
CONTINUOUS
 62
     7
 10
234.66529821599309
 20
572.70053332201633
 30
0.0
  0
SEQEND
  5
4C7
  8
DATA
  6
CONTINUOUS
 62
     7
  0
POLYLINE
  5
191
  8
DATA
  6
CONTINUOUS
 62
     7
 66
     1
 10
0.0
 20
0.0
 30
0.0
 70
     1
  0
VERTEX
  5
4C8
  8
DATA
  6
CONTINUOUS
 62
     7
 10
232.66529821599309
 20
574.23053332201607
 30
0.0
  0
VERTEX
  5
4C9
  8
DATA
  6
CONTINUOUS
 62
     7
 10
234.19529821599309
 20
574.23053332201607
 30
0.0
  0
VERTEX
  5
4CA
  8
DATA
  6
CONTINUOUS
 62
     7
 10
234.19529821599309
 20
572.70053332201633
 30
0.0
  0
VERTEX
  5
4CB
  8
DATA
  6
CONTINUOUS
 62
     7
 10
232.66529821599309
 20
572.70053332201633
 30
0.0
  0
SEQEND
  5
4CC
  8
DATA
  6
CONTINUOUS
 62
     7
  0
POLYLINE
  5
198
  8
DATA
  6
CONTINUOUS
 62
     7
 66
     1
 10
0.0
 20
0.0
 30
0.0
 70
     1
  0
VERTEX
  5
4CD
  8
DATA
  6
CONTINUOUS
 62
     7
 10
230.66529821599309
 20
574.23053332201607
 30
0.0
  0
VERTEX
  5
4CE
  8
DATA
  6
CONTINUOUS
 62
     7
 10
232.19529821599309
 20
574.23053332201607
 30
0.0
  0
VERTEX
  5
4CF
  8
DATA
  6
CONTINUOUS
 62
     7
 10
232.19529821599309
 20
572.70053332201633
 30
0.0
  0
VERTEX
  5
4D0
  8
DATA
  6
CONTINUOUS
 62
     7
 10
230.66529821599309
 20
572.70053332201633
 30
0.0
  0
SEQEND
  5
4D1
  8
DATA
  6
CONTINUOUS
 62
     7
  0
POLYLINE
  5
19F
  8
DATA
  6
CONTINUOUS
 62
     7
 66
     1
 10
0.0
 20
0.0
 30
0.0
 70
     1
  0
VERTEX
  5
4D2
  8
DATA
  6
CONTINUOUS
 62
     7
 10
228.66529821599309
 20
574.23053332201607
 30
0.0
  0
VERTEX
  5
4D3
  8
DATA
  6
CONTINUOUS
 62
     7
 10
230.19529821599309
 20
574.23053332201607
 30
0.0
  0
VERTEX
  5
4D4
  8
DATA
  6
CONTINUOUS
 62
     7
 10
230.19529821599309
 20
572.70053332201633
 30
0.0
  0
VERTEX
  5
4D5
  8
DATA
  6
CONTINUOUS
 62
     7
 10
228.66529821599309
 20
572.70053332201633
 30
0.0
  0
SEQEND
  5
4D6
  8
DATA
  6
CONTINUOUS
 62
     7
  0
POLYLINE
  5
1A6
  8
DATA
  6
CONTINUOUS
 62
     7
 66
     1
 10
0.0
 20
0.0
 30
0.0
 70
     1
  0
VERTEX
  5
4D7
  8
DATA
  6
CONTINUOUS
 62
     7
 10
226.665298215993
 20
574.23053332201607
 30
0.0
  0
VERTEX
  5
4D8
  8
DATA
  6
CONTINUOUS
 62
     7
 10
228.19529821599309
 20
574.23053332201607
 30
0.0
  0
VERTEX
  5
4D9
  8
DATA
  6
CONTINUOUS
 62
     7
 10
228.19529821599309
 20
572.70053332201633
 30
0.0
  0
VERTEX
  5
4DA
  8
DATA
  6
CONTINUOUS
 62
     7
 10
226.665298215993
 20
572.70053332201633
 30
0.0
  0
SEQEND
  5
4DB
  8
DATA
  6
CONTINUOUS
 62
     7
  0
POLYLINE
  5
1AD
  8
DATA
  6
CONTINUOUS
 62
     7
 66
     1
 10
0.0
 20
0.0
 30
0.0
 70
     1
  0
VERTEX
  5
4DC
  8
DATA
  6
CONTINUOUS
 62
     7
 10
224.66529821599289
 20
574.23053332201607
 30
0.0
  0
VERTEX
  5
4DD
  8
DATA
  6
CONTINUOUS
 62
     7
 10
226.19529821599289
 20
574.23053332201607
 30
0.0
  0
VERTEX
  5
4DE
  8
DATA
  6
CONTINUOUS
 62
     7
 10
226.19529821599289
 20
572.70053332201633
 30
0.0
  0
VERTEX
  5
4DF
  8
DATA
  6
CONTINUOUS
 62
     7
 10
224.66529821599289
 20
572.70053332201633
 30
0.0
  0
SEQEND
  5
4E0
  8
DATA
  6
CONTINUOUS
 62
     7
  0
POLYLINE
  5
1B4
  8
DATA
  6
CONTINUOUS
 62
     7
 66
     1
 10
0.0
 20
0.0
 30
0.0
 70
     1
  0
VERTEX
  5
4E1
  8
DATA
  6
CONTINUOUS
 62
     7
 10
222.66529821599281
 20
574.23053332201607
 30
0.0
  0
VERTEX
  5
4E2
  8
DATA
  6
CONTINUOUS
 62
     7
 10
224.19529821599281
 20
574.23053332201607
 30
0.0
  0
VERTEX
  5
4E3
  8
DATA
  6
CONTINUOUS
 62
     7
 10
224.19529821599281
 20
572.70053332201633
 30
0.0
  0
VERTEX
  5
4E4
  8
DATA
  6
CONTINUOUS
 62
     7
 10
222.66529821599281
 20
572.70053332201633
 30
0.0
  0
SEQEND
  5
4E5
  8
DATA
  6
CONTINUOUS
 62
     7
  0
POLYLINE
  5
1BB
  8
DATA
  6
CONTINUOUS
 62
     7
 66
     1
 10
0.0
 20
0.0
 30
0.0
 70
     1
  0
VERTEX
  5
4E6
  8
DATA
  6
CONTINUOUS
 62
     7
 10
220.66529821599249
 20
574.23053332201607
 30
0.0
  0
VERTEX
  5
4E7
  8
DATA
  6
CONTINUOUS
 62
     7
 10
222.19529821599261
 20
574.23053332201607
 30
0.0
  0
VERTEX
  5
4E8
  8
DATA
  6
CONTINUOUS
 62
     7
 10
222.19529821599261
 20
572.70053332201633
 30
0.0
  0
VERTEX
  5
4E9
  8
DATA
  6
CONTINUOUS
 62
     7
 10
220.66529821599249
 20
572.70053332201633
 30
0.0
  0
SEQEND
  5
4EA
  8
DATA
  6
CONTINUOUS
 62
     7
  0
POLYLINE
  5
1C2
  8
DATA
  6
CONTINUOUS
 62
     7
 66
     1
 10
0.0
 20
0.0
 30
0.0
 70
     1
  0
VERTEX
  5
4EB
  8
DATA
  6
CONTINUOUS
 62
     7
 10
234.66529821599309
 20
578.23053332201607
 30
0.0
  0
VERTEX
  5
4EC
  8
DATA
  6
CONTINUOUS
 62
     7
 10
236.19529821599309
 20
578.23053332201607
 30
0.0
  0
VERTEX
  5
4ED
  8
DATA
  6
CONTINUOUS
 62
     7
 10
236.19529821599309
 20
576.70053332201633
 30
0.0
  0
VERTEX
  5
4EE
  8
DATA
  6
CONTINUOUS
 62
     7
 10
234.66529821599309
 20
576.70053332201633
 30
0.0
  0
SEQEND
  5
4EF
  8
DATA
  6
CONTINUOUS
 62
     7
  0
POLYLINE
  5
1C9
  8
DATA
  6
CONTINUOUS
 62
     7
 66
     1
 10
0.0
 20
0.0
 30
0.0
 70
     1
  0
VERTEX
  5
4F0
  8
DATA
  6
CONTINUOUS
 62
     7
 10
232.66529821599309
 20
578.23053332201607
 30
0.0
  0
VERTEX
  5
4F1
  8
DATA
  6
CONTINUOUS
 62
     7
 10
234.19529821599309
 20
578.23053332201607
 30
0.0
  0
VERTEX
  5
4F2
  8
DATA
  6
CONTINUOUS
 62
     7
 10
234.19529821599309
 20
576.70053332201633
 30
0.0
  0
VERTEX
  5
4F3
  8
DATA
  6
CONTINUOUS
 62
     7
 10
232.66529821599309
 20
576.70053332201633
 30
0.0
  0
SEQEND
  5
4F4
  8
DATA
  6
CONTINUOUS
 62
     7
  0
POLYLINE
  5
1D0
  8
DATA
  6
CONTINUOUS
 62
     7
 66
     1
 10
0.0
 20
0.0
 30
0.0
 70
     1
  0
VERTEX
  5
4F5
  8
DATA
  6
CONTINUOUS
 62
     7
 10
230.66529821599309
 20
578.23053332201607
 30
0.0
  0
VERTEX
  5
4F6
  8
DATA
  6
CONTINUOUS
 62
     7
 10
232.19529821599309
 20
578.23053332201607
 30
0.0
  0
VERTEX
  5
4F7
  8
DATA
  6
CONTINUOUS
 62
     7
 10
232.19529821599309
 20
576.70053332201633
 30
0.0
  0
VERTEX
  5
4F8
  8
DATA
  6
CONTINUOUS
 62
     7
 10
230.66529821599309
 20
576.70053332201633
 30
0.0
  0
SEQEND
  5
4F9
  8
DATA
  6
CONTINUOUS
 62
     7
  0
POLYLINE
  5
1D7
  8
DATA
  6
CONTINUOUS
 62
     7
 66
     1
 10
0.0
 20
0.0
 30
0.0
 70
     1
  0
VERTEX
  5
4FA
  8
DATA
  6
CONTINUOUS
 62
     7
 10
228.66529821599309
 20
578.23053332201607
 30
0.0
  0
VERTEX
  5
4FB
  8
DATA
  6
CONTINUOUS
 62
     7
 10
230.19529821599309
 20
578.23053332201607
 30
0.0
  0
VERTEX
  5
4FC
  8
DATA
  6
CONTINUOUS
 62
     7
 10
230.19529821599309
 20
576.70053332201633
 30
0.0
  0
VERTEX
  5
4FD
  8
DATA
  6
CONTINUOUS
 62
     7
 10
228.66529821599309
 20
576.70053332201633
 30
0.0
  0
SEQEND
  5
4FE
  8
DATA
  6
CONTINUOUS
 62
     7
  0
POLYLINE
  5
1DE
  8
DATA
  6
CONTINUOUS
 62
     7
 66
     1
 10
0.0
 20
0.0
 30
0.0
 70
     1
  0
VERTEX
  5
4FF
  8
DATA
  6
CONTINUOUS
 62
     7
 10
226.665298215993
 20
578.23053332201607
 30
0.0
  0
VERTEX
  5
500
  8
DATA
  6
CONTINUOUS
 62
     7
 10
228.19529821599309
 20
578.23053332201607
 30
0.0
  0
VERTEX
  5
501
  8
DATA
  6
CONTINUOUS
 62
     7
 10
228.19529821599309
 20
576.70053332201633
 30
0.0
  0
VERTEX
  5
502
  8
DATA
  6
CONTINUOUS
 62
     7
 10
226.665298215993
 20
576.70053332201633
 30
0.0
  0
SEQEND
  5
503
  8
DATA
  6
CONTINUOUS
 62
     7
  0
POLYLINE
  5
1E5
  8
DATA
  6
CONTINUOUS
 62
     7
 66
     1
 10
0.0
 20
0.0
 30
0.0
 70
     1
  0
VERTEX
  5
504
  8
DATA
  6
CONTINUOUS
 62
     7
 10
224.66529821599289
 20
578.23053332201607
 30
0.0
  0
VERTEX
  5
505
  8
DATA
  6
CONTINUOUS
 62
     7
 10
226.19529821599289
 20
578.23053332201607
 30
0.0
  0
VERTEX
  5
506
  8
DATA
  6
CONTINUOUS
 62
     7
 10
226.19529821599289
 20
576.70053332201633
 30
0.0
  0
VERTEX
  5
507
  8
DATA
  6
CONTINUOUS
 62
     7
 10
224.66529821599289
 20
576.70053332201633
 30
0.0
  0
SEQEND
  5
508
  8
DATA
  6
CONTINUOUS
 62
     7
  0
POLYLINE
  5
1EC
  8
DATA
  6
CONTINUOUS
 62
     7
 66
     1
 10
0.0
 20
0.0
 30
0.0
 70
     1
  0
VERTEX
  5
509
  8
DATA
  6
CONTINUOUS
 62
     7
 10
222.66529821599281
 20
578.23053332201607
 30
0.0
  0
VERTEX
  5
50A
  8
DATA
  6
CONTINUOUS
 62
     7
 10
224.19529821599281
 20
578.23053332201607
 30
0.0
  0
VERTEX
  5
50B
  8
DATA
  6
CONTINUOUS
 62
     7
 10
224.19529821599281
 20
576.70053332201633
 30
0.0
  0
VERTEX
  5
50C
  8
DATA
  6
CONTINUOUS
 62
     7
 10
222.66529821599281
 20
576.70053332201633
 30
0.0
  0
SEQEND
  5
50D
  8
DATA
  6
CONTINUOUS
 62
     7
  0
POLYLINE
  5
1F3
  8
DATA
  6
CONTINUOUS
 62
     7
 66
     1
 10
0.0
 20
0.0
 30
0.0
 70
     1
  0
VERTEX
  5
50E
  8
DATA
  6
CONTINUOUS
 62
     7
 10
220.66529821599249
 20
578.23053332201607
 30
0.0
  0
VERTEX
  5
50F
  8
DATA
  6
CONTINUOUS
 62
     7
 10
222.19529821599261
 20
578.23053332201607
 30
0.0
  0
VERTEX
  5
510
  8
DATA
  6
CONTINUOUS
 62
     7
 10
222.19529821599261
 20
576.70053332201633
 30
0.0
  0
VERTEX
  5
511
  8
DATA
  6
CONTINUOUS
 62
     7
 10
220.66529821599249
 20
576.70053332201633
 30
0.0
  0
SEQEND
  5
512
  8
DATA
  6
CONTINUOUS
 62
     7
  0
POLYLINE
  5
1FA
  8
DATA
  6
CONTINUOUS
 62
     7
 66
     1
 10
0.0
 20
0.0
 30
0.0
  0
VERTEX
  5
513
  8
DATA
  6
CONTINUOUS
 62
     7
 10
216.6452320448129
 20
575.06553332201634
 30
0.0
  0
VERTEX
  5
514
  8
DATA
  6
CONTINUOUS
 62
     7
 10
214.54523204481299
 20
575.06553332201634
 30
0.0
  0
VERTEX
  5
515
  8
DATA
  6
CONTINUOUS
 62
     7
 10
214.54523204481299
 20
575.8655333220164
 30
0.0
  0
VERTEX
  5
516
  8
DATA
  6
CONTINUOUS
 62
     7
 10
216.6452320448129
 20
575.8655333220164
 30
0.0
  0
SEQEND
  5
517
  8
DATA
  6
CONTINUOUS
 62
     7
  0
POLYLINE
  5
201
  8
DATA
  6
CONTINUOUS
 62
     7
 66
     1
 10
0.0
 20
0.0
 30
0.0
  0
VERTEX
  5
518
  8
DATA
  6
CONTINUOUS
 62
     7
 10
217.44523204481291
 20
575.8655333220164
 30
0.0
  0
VERTEX
  5
519
  8
DATA
  6
CONTINUOUS
 62
     7
 10
219.5452320448131
 20
575.8655333220164
 30
0.0
  0
VERTEX
  5
51A
  8
DATA
  6
CONTINUOUS
 62
     7
 10
219.5452320448131
 20
575.06553332201634
 30
0.0
  0
VERTEX
  5
51B
  8
DATA
  6
CONTINUOUS
 62
     7
 10
217.44523204481291
 20
575.06553332201634
 30
0.0
  0
SEQEND
  5
51C
  8
DATA
  6
CONTINUOUS
 62
     7
  0
POLYLINE
  5
208
  8
DATA
  6
CONTINUOUS
 62
     7
 66
     1
 10
0.0
 20
0.0
 30
0.0
  0
VERTEX
  5
51D
  8
DATA
  6
CONTINUOUS
 62
     7
 10
216.6452320448129
 20
575.8655333220164
 30
0.0
  0
VERTEX
  5
51E
  8
DATA
  6
CONTINUOUS
 62
     7
 10
216.6452320448129
 20
577.96553332201643
 30
0.0
  0
VERTEX
  5
51F
  8
DATA
  6
CONTINUOUS
 62
     7
 10
217.44523204481291
 20
577.96553332201643
 30
0.0
  0
VERTEX
  5
520
  8
DATA
  6
CONTINUOUS
 62
     7
 10
217.44523204481291
 20
575.8655333220164
 30
0.0
  0
SEQEND
  5
521
  8
DATA
  6
CONTINUOUS
 62
     7
  0
POLYLINE
  5
20F
  8
DATA
  6
CONTINUOUS
 62
     7
 66
     1
 10
0.0
 20
0.0
 30
0.0
  0
VERTEX
  5
522
  8
DATA
  6
CONTINUOUS
 62
     7
 10
217.44523204481291
 20
575.06553332201634
 30
0.0
  0
VERTEX
  5
523
  8
DATA
  6
CONTINUOUS
 62
     7
 10
217.44523204481291
 20
572.96553332201643
 30
0.0
  0
VERTEX
  5
524
  8
DATA
  6
CONTINUOUS
 62
     7
 10
216.6452320448129
 20
572.96553332201643
 30
0.0
  0
VERTEX
  5
525
  8
DATA
  6
CONTINUOUS
 62
     7
 10
216.6452320448129
 20
575.06553332201634
 30
0.0
  0
SEQEND
  5
526
  8
DATA
  6
CONTINUOUS
 62
     7
  0
POLYLINE
  5
216
  8
DATA
  6
CONTINUOUS
 62
     7
 66
     1
 10
0.0
 20
0.0
 30
0.0
 70
     1
  0
VERTEX
  5
527
  8
DATA
  6
CONTINUOUS
 62
     7
 10
217.9055164752846
 20
574.70610551136645
 30
0.0
  0
VERTEX
  5
528
  8
DATA
  6
CONTINUOUS
 62
     7
 10
218.90551647528471
 20
574.70610551136645
 30
0.0
  0
VERTEX
  5
529
  8
DATA
  6
CONTINUOUS
 62
     7
 10
218.90551647528471
 20
573.70610551136645
 30
0.0
  0
VERTEX
  5
52A
  8
DATA
  6
CONTINUOUS
 62
     7
 10
217.9055164752846
 20
573.70610551136645
 30
0.0
  0
SEQEND
  5
52B
  8
DATA
  6
CONTINUOUS
 62
     7
  0
POLYLINE
  5
21D
  8
DATA
  6
CONTINUOUS
 62
     7
 66
     1
 10
0.0
 20
0.0
 30
0.0
 70
     1
  0
VERTEX
  5
52C
  8
DATA
  6
CONTINUOUS
 62
     7
 10
215.1849476143413
 20
574.70610551136645
 30
0.0
  0
VERTEX
  5
52D
  8
DATA
  6
CONTINUOUS
 62
     7
 10
216.18494761434121
 20
574.70610551136645
 30
0.0
  0
VERTEX
  5
52E
  8
DATA
  6
CONTINUOUS
 62
     7
 10
216.18494761434121
 20
573.70610551136645
 30
0.0
  0
VERTEX
  5
52F
  8
DATA
  6
CONTINUOUS
 62
     7
 10
215.1849476143413
 20
573.70610551136645
 30
0.0
  0
SEQEND
  5
530
  8
DATA
  6
CONTINUOUS
 62
     7
  0
POLYLINE
  5
224
  8
DATA
  6
CONTINUOUS
 62
     7
 66
     1
 10
0.0
 20
0.0
 30
0.0
 70
     1
  0
VERTEX
  5
531
  8
DATA
  6
CONTINUOUS
 62
     7
 10
217.9055164752846
 20
577.22496113266641
 30
0.0
  0
VERTEX
  5
532
  8
DATA
  6
CONTINUOUS
 62
     7
 10
218.90551647528471
 20
577.22496113266641
 30
0.0
  0
VERTEX
  5
533
  8
DATA
  6
CONTINUOUS
 62
     7
 10
218.90551647528471
 20
576.22496113266641
 30
0.0
  0
VERTEX
  5
534
  8
DATA
  6
CONTINUOUS
 62
     7
 10
217.9055164752846
 20
576.22496113266641
 30
0.0
  0
SEQEND
  5
535
  8
DATA
  6
CONTINUOUS
 62
     7
  0
POLYLINE
  5
22B
  8
DATA
  6
CONTINUOUS
 62
     7
 66
     1
 10
0.0
 20
0.0
 30
0.0
 70
     1
  0
VERTEX
  5
536
  8
DATA
  6
CONTINUOUS
 62
     7
 10
215.1849476143413
 20
577.22496113266641
 30
0.0
  0
VERTEX
  5
537
  8
DATA
  6
CONTINUOUS
 62
     7
 10
216.18494761434121
 20
577.22496113266641
 30
0.0
  0
VERTEX
  5
538
  8
DATA
  6
CONTINUOUS
 62
     7
 10
216.18494761434121
 20
576.22496113266641
 30
0.0
  0
VERTEX
  5
539
  8
DATA
  6
CONTINUOUS
 62
     7
 10
215.1849476143413
 20
576.22496113266641
 30
0.0
  0
SEQEND
  5
53A
  8
DATA
  6
CONTINUOUS
 62
     7
  0
LINE
  5
232
  8
DATA
  6
CONTINUOUS
 62
     7
 10
237.14060386276091
 20
572.63564162750254
 30
0.0
 11
236.58168666530861
 21
578.48564162750245
 31
0.0
  0
LINE
  5
233
  8
DATA
  6
CONTINUOUS
 62
     7
 10
213.2498602268661
 20
572.63564162750254
 30
0.0
 11
213.80877742431821
 21
578.48564162750245
 31
0.0
  0
ARC
  5
234
  8
DATA
  6
CONTINUOUS
 62
     7
 10
236.14513693200561
 20
572.54053332201624
 30
0.0
 40
1.0
 50
270.0
 51
5.4575534851074403
  0
ARC
  5
235
  8
DATA
  6
CONTINUOUS
 62
     7
 10
214.2453271576214
 20
572.54053332201624
 30
0.0
 40
0.9999999999999051
 50
174.54244651489191
 51
270.0
  0
ARC
  5
236
  8
DATA
  6
CONTINUOUS
 62
     7
 10
235.5862197345532
 20
578.39053332201638
 30
0.0
 40
1.0000000000000031
 50
5.457553485107554
 51
89.999999999999986
  0
ARC
  5
237
  8
DATA
  6
CONTINUOUS
 62
     7
 10
214.80424435507359
 20
578.39053332201638
 30
0.0
 40
1.0
 50
90.0
 51
174.54244651489509
  0
TEXT
  5
238
  8
DATA
 62
     7
 10
230.62486547505571
 20
569.84289300138255
 30
0.0
 40
2.8097509765624999
  1
DVI In
 50
180.0
 41
0.7
 11
230.62486547505571
 21
567.03314202482011
 31
0.0
 73
     3
  0
CIRCLE
  5
239
  8
DATA
  6
CONTINUOUS
 62
     7
 10
252.59999999999999
 20
575.49999999999989
 30
0.0
 40
1.449999999999988
  0
CIRCLE
  5
23A
  8
DATA
  6
CONTINUOUS
 62
     7
 10
262.5
 20
575.49999999999989
 30
0.0
 40
3.25
  0
CIRCLE
  5
23B
  8
DATA
  6
CONTINUOUS
 62
     7
 10
262.5
 20
575.49999999999989
 30
0.0
 40
0.5
  0
LINE
  5
23C
  8
DATA
  6
CONTINUOUS
 62
     7
 10
149.30000000000001
 20
549.75
 30
0.0
 11
149.30000000000001
 21
542.25
 31
0.0
  0
LINE
  5
23D
  8
DATA
  6
CONTINUOUS
 62
     7
 10
157.680908992074
 20
549.75
 30
0.0
 11
157.680908992074
 21
542.25
 31
0.0
  0
LINE
  5
23E
  8
DATA
  6
CONTINUOUS
 62
     7
 10
164.30000000000001
 20
549.75
 30
0.0
 11
164.30000000000001
 21
542.25
 31
0.0
  0
LINE
  5
23F
  8
DATA
  6
CONTINUOUS
 62
     7
 10
172.69999999999999
 20
549.75
 30
0.0
 11
172.69999999999999
 21
542.25
 31
0.0
  0
LINE
  5
240
  8
DATA
  6
CONTINUOUS
 62
     7
 10
180.30000000000001
 20
549.75
 30
0.0
 11
180.30000000000001
 21
542.25
 31
0.0
  0
LINE
  5
241
  8
DATA
  6
CONTINUOUS
 62
     7
 10
188.69999999999999
 20
549.75
 30
0.0
 11
188.69999999999999
 21
542.25
 31
0.0
  0
LINE
  5
242
  8
DATA
  6
CONTINUOUS
 62
     7
 10
149.30000000000001
 20
549.75
 30
0.0
 11
157.680908992074
 21
549.75
 31
0.0
  0
LINE
  5
243
  8
DATA
  6
CONTINUOUS
 62
     7
 10
164.30000000000001
 20
549.75
 30
0.0
 11
172.69999999999999
 21
549.75
 31
0.0
  0
LINE
  5
244
  8
DATA
  6
CONTINUOUS
 62
     7
 10
180.30000000000001
 20
549.75
 30
0.0
 11
188.69999999999999
 21
549.75
 31
0.0
  0
TEXT
  5
245
  8
DATA
 62
     7
 10
154.3037159468476
 20
584.17621162971966
 30
0.0
 40
2.8097509765624999
  1
R
 50
180.0
 41
0.7
 11
154.3037159468476
 21
581.36646065315722
 31
0.0
 73
     3
  0
TEXT
  5
246
  8
DATA
 62
     7
 10
169.4482422691579
 20
584.24519870483687
 30
0.0
 40
2.8097509765624999
  1
L
 50
180.0
 41
0.7
 11
169.4482422691579
 21
581.43544772827443
 31
0.0
 73
     3
  0
TEXT
  5
247
  8
DATA
 62
     7
 10
188.9210142906548
 20
584.23153382145665
 30
0.0
 40
2.8097509765624999
  1
SPDIF
 50
180.0
 41
0.7
 11
188.9210142906548
 21
581.42178284489398
 31
0.0
 73
     3
  0
TEXT
  5
248
  8
DATA
 62
     7
 10
200.20162013538919
 20
569.87387085949501
 30
0.0
 40
2.8097509765624999
  1
OPT
 50
180.0
 41
0.7
 11
200.20162013538919
 21
567.06411988293235
 31
0.0
 73
     3
  0
LINE
  5
249
  8
DATA
  6
CONTINUOUS
 62
     7
 10
343.75
 20
441.5
 30
0.0
 11
429.75
 21
441.5
 31
0.0
  0
LINE
  5
24A
  8
DATA
  6
CONTINUOUS
 62
     7
 10
343.75
 20
412.5
 30
0.0
 11
429.75
 21
412.5
 31
0.0
  0
LINE
  5
24B
  8
DATA
  6
CONTINUOUS
 62
     7
 10
343.75
 20
412.5
 30
0.0
 11
343.75
 21
441.5
 31
0.0
  0
LINE
  5
24C
  8
DATA
  6
CONTINUOUS
 62
     7
 10
429.75
 20
412.5
 30
0.0
 11
429.75
 21
441.5
 31
0.0
  0
LINE
  5
24D
  8
DATA
  6
CONTINUOUS
 62
     7
 10
351.82801125627373
 20
410.5
 30
0.0
 11
353.02801125627371
 21
412.5
 31
0.0
  0
LINE
  5
24E
  8
DATA
  6
CONTINUOUS
 62
     7
 10
346.82801125627373
 20
410.5
 30
0.0
 11
345.62801125627368
 21
412.5
 31
0.0
  0
LINE
  5
24F
  8
DATA
  6
CONTINUOUS
 62
     7
 10
351.82801125627373
 20
410.5
 30
0.0
 11
346.82801125627373
 21
410.5
 31
0.0
  0
LINE
  5
250
  8
DATA
  6
CONTINUOUS
 62
     7
 10
421.67198874372627
 20
410.5
 30
0.0
 11
420.47198874372629
 21
412.5
 31
0.0
  0
LINE
  5
251
  8
DATA
  6
CONTINUOUS
 62
     7
 10
426.67198874372627
 20
410.5
 30
0.0
 11
427.87198874372632
 21
412.5
 31
0.0
  0
LINE
  5
252
  8
DATA
  6
CONTINUOUS
 62
     7
 10
421.67198874372627
 20
410.5
 30
0.0
 11
426.67198874372627
 21
410.5
 31
0.0
  0
LINE
  5
253
  8
DATA
  6
CONTINUOUS
 62
     7
 10
137.5
 20
150.0
 30
0.0
 11
137.5
 21
179.0
 31
0.0
  0
LINE
  5
254
  8
DATA
  6
CONTINUOUS
 62
     7
 10
137.5
 20
193.75
 30
0.0
 11
137.5
 21
279.75
 31
0.0
  0
TEXT
  5
255
  8
DATA
 62
     7
 10
154.9675440481391
 20
100.25089586946839
 30
0.0
 40
8.1442057291666661
  1
DVI AUDIO(レシーバー)
 41
0.7
 11
154.9675440481391
 21
108.39510159863509
 31
0.0
 73
     3
  0
LINE
  5
256
  8
DATA
  6
CONTINUOUS
 62
     7
 10
137.5
 20
150.0
 30
0.0
 11
137.5
 21
179.0
 31
0.0
  0
LINE
  5
257
  8
DATA
  6
CONTINUOUS
 62
     7
 10
149.5
 20
150.0
 30
0.0
 11
137.5
 21
150.0
 31
0.0
  0
LINE
  5
258
  8
DATA
  6
CONTINUOUS
 62
     7
 10
137.5
 20
193.75
 30
0.0
 11
279.5
 21
193.75
 31
0.0
  0
LINE
  5
259
  8
DATA
  6
CONTINUOUS
 62
     7
 10
191.44422295286861
 20
160.6966778627349
 30
0.0
 11
191.44422295286861
 21
173.99667786273491
 31
0.0
  0
LINE
  5
25A
  8
DATA
  6
CONTINUOUS
 62
     7
 10
207.1442229528686
 20
160.6966778627349
 30
0.0
 11
207.1442229528686
 21
173.99667786273491
 31
0.0
  0
LINE
  5
25B
  8
DATA
  6
CONTINUOUS
 62
     7
 10
207.1442229528686
 20
173.99667786273491
 30
0.0
 11
191.44422295286861
 21
173.99667786273491
 31
0.0
  0
LINE
  5
25C
  8
DATA
  6
CONTINUOUS
 62
     7
 10
207.1442229528686
 20
160.6966778627349
 30
0.0
 11
191.44422295286861
 21
160.6966778627349
 31
0.0
  0
LINE
  5
25D
  8
DATA
  6
CONTINUOUS
 62
     7
 10
205.44422295286861
 20
163.6966778627349
 30
0.0
 11
193.14422295286849
 21
163.6966778627349
 31
0.0
  0
LINE
  5
25E
  8
DATA
  6
CONTINUOUS
 62
     7
 10
205.44422295286861
 20
163.6966778627349
 30
0.0
 11
205.44422295286861
 21
170.99667786273491
 31
0.0
  0
LINE
  5
25F
  8
DATA
  6
CONTINUOUS
 62
     7
 10
193.14422295286849
 20
163.6966778627349
 30
0.0
 11
193.14422295286849
 21
170.99667786273491
 31
0.0
  0
LINE
  5
260
  8
DATA
  6
CONTINUOUS
 62
     7
 10
201.5192229528686
 20
173.99667786273491
 30
0.0
 11
201.5192229528686
 21
172.49667786273491
 31
0.0
  0
LINE
  5
261
  8
DATA
  6
CONTINUOUS
 62
     7
 10
197.06922295286861
 20
172.49667786273491
 30
0.0
 11
197.06922295286861
 21
173.99667786273491
 31
0.0
  0
LINE
  5
262
  8
DATA
  6
CONTINUOUS
 62
     7
 10
202.6442229528686
 20
172.49667786273491
 30
0.0
 11
201.5192229528686
 21
172.49667786273491
 31
0.0
  0
LINE
  5
263
  8
DATA
  6
CONTINUOUS
 62
     7
 10
197.06922295286861
 20
172.49667786273491
 30
0.0
 11
195.94422295286861
 21
172.49667786273491
 31
0.0
  0
LINE
  5
264
  8
DATA
  6
CONTINUOUS
 62
     7
 10
205.44422295286861
 20
170.99667786273491
 30
0.0
 11
202.6442229528686
 21
170.99667786273491
 31
0.0
  0
LINE
  5
265
  8
DATA
  6
CONTINUOUS
 62
     7
 10
195.94422295286861
 20
170.99667786273491
 30
0.0
 11
193.14422295286849
 21
170.99667786273491
 31
0.0
  0
LINE
  5
266
  8
DATA
  6
CONTINUOUS
 62
     7
 10
202.6442229528686
 20
172.49667786273491
 30
0.0
 11
202.6442229528686
 21
170.99667786273491
 31
0.0
  0
LINE
  5
267
  8
DATA
  6
CONTINUOUS
 62
     7
 10
195.94422295286861
 20
170.99667786273491
 30
0.0
 11
195.94422295286861
 21
172.49667786273491
 31
0.0
  0
LINE
  5
268
  8
DATA
  6
CONTINUOUS
 62
     7
 10
212.74739589464491
 20
160.6966778627349
 30
0.0
 11
212.74739589464491
 21
173.99667786273491
 31
0.0
  0
LINE
  5
269
  8
DATA
  6
CONTINUOUS
 62
     7
 10
228.4473958946449
 20
160.6966778627349
 30
0.0
 11
228.4473958946449
 21
173.99667786273491
 31
0.0
  0
LINE
  5
26A
  8
DATA
  6
CONTINUOUS
 62
     7
 10
228.4473958946449
 20
173.99667786273491
 30
0.0
 11
212.74739589464491
 21
173.99667786273491
 31
0.0
  0
LINE
  5
26B
  8
DATA
  6
CONTINUOUS
 62
     7
 10
228.4473958946449
 20
160.6966778627349
 30
0.0
 11
212.74739589464491
 21
160.6966778627349
 31
0.0
  0
LINE
  5
26C
  8
DATA
  6
CONTINUOUS
 62
     7
 10
226.74739589464491
 20
163.6966778627349
 30
0.0
 11
214.44739589464481
 21
163.6966778627349
 31
0.0
  0
LINE
  5
26D
  8
DATA
  6
CONTINUOUS
 62
     7
 10
226.74739589464491
 20
163.6966778627349
 30
0.0
 11
226.74739589464491
 21
170.99667786273491
 31
0.0
  0
LINE
  5
26E
  8
DATA
  6
CONTINUOUS
 62
     7
 10
214.44739589464481
 20
163.6966778627349
 30
0.0
 11
214.44739589464481
 21
170.99667786273491
 31
0.0
  0
LINE
  5
26F
  8
DATA
  6
CONTINUOUS
 62
     7
 10
222.82239589464481
 20
173.99667786273491
 30
0.0
 11
222.82239589464481
 21
172.49667786273491
 31
0.0
  0
LINE
  5
270
  8
DATA
  6
CONTINUOUS
 62
     7
 10
218.37239589464491
 20
172.49667786273491
 30
0.0
 11
218.37239589464491
 21
173.99667786273491
 31
0.0
  0
LINE
  5
271
  8
DATA
  6
CONTINUOUS
 62
     7
 10
223.94739589464481
 20
172.49667786273491
 30
0.0
 11
222.82239589464481
 21
172.49667786273491
 31
0.0
  0
LINE
  5
272
  8
DATA
  6
CONTINUOUS
 62
     7
 10
218.37239589464491
 20
172.49667786273491
 30
0.0
 11
217.24739589464491
 21
172.49667786273491
 31
0.0
  0
LINE
  5
273
  8
DATA
  6
CONTINUOUS
 62
     7
 10
226.74739589464491
 20
170.99667786273491
 30
0.0
 11
223.94739589464481
 21
170.99667786273491
 31
0.0
  0
LINE
  5
274
  8
DATA
  6
CONTINUOUS
 62
     7
 10
217.24739589464491
 20
170.99667786273491
 30
0.0
 11
214.44739589464481
 21
170.99667786273491
 31
0.0
  0
LINE
  5
275
  8
DATA
  6
CONTINUOUS
 62
     7
 10
223.94739589464481
 20
172.49667786273491
 30
0.0
 11
223.94739589464481
 21
170.99667786273491
 31
0.0
  0
LINE
  5
276
  8
DATA
  6
CONTINUOUS
 62
     7
 10
217.24739589464491
 20
170.99667786273491
 30
0.0
 11
217.24739589464491
 21
172.49667786273491
 31
0.0
  0
TEXT
  5
277
  8
DATA
 62
     7
 10
191.87253248332851
 20
154.47473221997129
 30
0.0
 40
2.4432617187500001
  1
DDC/Audio
 41
0.7
 11
191.87253248332851
 21
156.91799393872131
 31
0.0
 73
     3
  0
TEXT
  5
278
  8
DATA
 62
     7
 10
216.38335643302781
 20
154.47473221997129
 30
0.0
 40
2.4432617187500001
  1
Video
 41
0.7
 11
216.38335643302781
 21
156.91799393872131
 31
0.0
 73
     3
  0
TEXT
  5
279
  8
DATA
 62
     7
 10
191.2428325836436
 20
266.79015250093238
 30
0.0
 40
9.7730468749999986
  1
DVI
 50
180.0
 41
0.7
 11
191.2428325836436
 21
257.0171056259324
 31
0.0
 73
     3
  0
TEXT
  5
27A
  8
DATA
 62
     7
 10
170.15619749837421
 20
266.86314117390913
 30
0.0
 40
5.7009440104166647
  1
AUDIO
 50
180.0
 41
0.7
 11
170.15619749837421
 21
261.16219716349241
 31
0.0
 73
     3
  0
TEXT
  5
27B
  8
DATA
 62
     7
 10
175.3746869622382
 20
273.90033503574023
 30
0.0
 40
4.8865234374999993
  1
extenderR
 50
180.0
 41
0.7
 11
175.3746869622382
 21
269.01381159824018
 31
0.0
 73
     3
  0
LINE
  5
27C
  8
DATA
  6
CONTINUOUS
 62
     7
 10
169.12834298889041
 20
284.74999999993378
 30
0.0
 11
169.12834298889041
 21
279.74999999993378
 31
0.0
  0
LINE
  5
27D
  8
DATA
  6
CONTINUOUS
 62
     7
 10
173.80488016932651
 20
284.74999999993378
 30
0.0
 11
173.80488016932651
 21
279.74999999993378
 31
0.0
  0
LINE
  5
27E
  8
DATA
  6
CONTINUOUS
 62
     7
 10
201.6283429888918
 20
284.74999999993378
 30
0.0
 11
201.6283429888918
 21
279.74999999993378
 31
0.0
  0
LINE
  5
27F
  8
DATA
  6
CONTINUOUS
 62
     7
 10
206.3048801693279
 20
284.74999999993378
 30
0.0
 11
206.3048801693279
 21
279.74999999993378
 31
0.0
  0
LINE
  5
280
  8
DATA
  6
CONTINUOUS
 62
     7
 10
175.7759873267014
 20
284.74999999993378
 30
0.0
 11
175.7759873267014
 21
279.74999999993378
 31
0.0
  0
LINE
  5
281
  8
DATA
  6
CONTINUOUS
 62
     7
 10
199.66198339705701
 20
284.74999999993378
 30
0.0
 11
199.66198339705701
 21
279.74999999993378
 31
0.0
  0
LINE
  5
282
  8
DATA
  6
CONTINUOUS
 62
     7
 10
169.12834298889041
 20
284.74999999993378
 30
0.0
 11
173.80488016932651
 21
284.74999999993378
 31
0.0
  0
LINE
  5
283
  8
DATA
  6
CONTINUOUS
 62
     7
 10
175.7759873267014
 20
284.74999999993378
 30
0.0
 11
199.66198339705701
 21
284.74999999993378
 31
0.0
  0
LINE
  5
284
  8
DATA
  6
CONTINUOUS
 62
     7
 10
201.6283429888918
 20
284.74999999993378
 30
0.0
 11
206.3048801693279
 21
284.74999999993378
 31
0.0
  0
ARC
  5
285
  8
DATA
  6
CONTINUOUS
 62
     7
 10
147.5893035752494
 20
280.25944963675857
 30
0.0
 40
1.4500000000000259
 50
0.1007759528213188
 51
181.40488957544099
  0
LINE
  5
286
  8
DATA
  6
CONTINUOUS
 62
     7
 10
149.03930133236759
 20
280.26199999980878
 30
0.0
 11
149.03930133236759
 21
279.74999999980878
 31
0.0
  0
LINE
  5
287
  8
DATA
  6
CONTINUOUS
 62
     7
 10
146.13973944362701
 20
280.29499999980891
 30
0.0
 11
146.13973944362701
 21
279.74999999980878
 31
0.0
  0
LINE
  5
288
  8
DATA
  6
CONTINUOUS
 62
     7
 10
279.5
 20
179.0
 30
0.0
 11
137.5
 21
179.0
 31
0.0
  0
LINE
  5
289
  8
DATA
  6
CONTINUOUS
 62
     7
 10
279.5
 20
152.0
 30
0.0
 11
137.5
 21
152.0
 31
0.0
  0
LINE
  5
28A
  8
DATA
  6
CONTINUOUS
 62
     7
 10
149.5
 20
150.0
 30
0.0
 11
149.5
 21
152.0
 31
0.0
  0
LINE
  5
28B
  8
DATA
  6
CONTINUOUS
 62
     7
 10
140.7077186008068
 20
148.0
 30
0.0
 11
139.50771860080681
 21
150.0
 31
0.0
  0
LINE
  5
28C
  8
DATA
  6
CONTINUOUS
 62
     7
 10
145.7077186008068
 20
148.0
 30
0.0
 11
146.90771860080679
 21
150.0
 31
0.0
  0
LINE
  5
28D
  8
DATA
  6
CONTINUOUS
 62
     7
 10
140.7077186008068
 20
148.0
 30
0.0
 11
145.7077186008068
 21
148.0
 31
0.0
  0
LINE
  5
28E
  8
DATA
  6
CONTINUOUS
 62
     7
 10
191.44162825259301
 20
193.25
 30
0.0
 11
207.14162825259291
 21
193.25
 31
0.0
  0
LINE
  5
28F
  8
DATA
  6
CONTINUOUS
 62
     7
 10
212.7448011943693
 20
193.25
 30
0.0
 11
228.44480119436921
 21
193.25
 31
0.0
  0
LINE
  5
290
  8
DATA
  6
CONTINUOUS
 62
     7
 10
191.44162825259301
 20
193.25
 30
0.0
 11
191.44162825259301
 21
193.75
 31
0.0
  0
LINE
  5
291
  8
DATA
  6
CONTINUOUS
 62
     7
 10
207.14162825259291
 20
193.25
 30
0.0
 11
207.14162825259291
 21
193.75
 31
0.0
  0
LINE
  5
292
  8
DATA
  6
CONTINUOUS
 62
     7
 10
212.7448011943693
 20
193.25
 30
0.0
 11
212.7448011943693
 21
193.75
 31
0.0
  0
LINE
  5
293
  8
DATA
  6
CONTINUOUS
 62
     7
 10
228.44480119436921
 20
193.25
 30
0.0
 11
228.44480119436921
 21
193.75
 31
0.0
  0
LINE
  5
294
  8
DATA
  6
CONTINUOUS
 62
     7
 10
279.5
 20
150.0
 30
0.0
 11
279.5
 21
179.0
 31
0.0
  0
LINE
  5
295
  8
DATA
  6
CONTINUOUS
 62
     7
 10
279.5
 20
150.0
 30
0.0
 11
267.5
 21
150.0
 31
0.0
  0
LINE
  5
296
  8
DATA
  6
CONTINUOUS
 62
     7
 10
267.5
 20
150.0
 30
0.0
 11
267.5
 21
152.0
 31
0.0
  0
LINE
  5
297
  8
DATA
  6
CONTINUOUS
 62
     7
 10
276.29228139919309
 20
148.0
 30
0.0
 11
277.49228139919319
 21
150.0
 31
0.0
  0
LINE
  5
298
  8
DATA
  6
CONTINUOUS
 62
     7
 10
271.29228139919309
 20
148.0
 30
0.0
 11
270.0922813991931
 21
150.0
 31
0.0
  0
LINE
  5
299
  8
DATA
  6
CONTINUOUS
 62
     7
 10
276.29228139919309
 20
148.0
 30
0.0
 11
271.29228139919309
 21
148.0
 31
0.0
  0
LINE
  5
29A
  8
DATA
  6
CONTINUOUS
 62
     7
 10
137.5
 20
279.75
 30
0.0
 11
279.5
 21
279.75
 31
0.0
  0
LINE
  5
29B
  8
DATA
  6
CONTINUOUS
 62
     7
 10
137.5
 20
329.0
 30
0.0
 11
137.5
 21
300.0
 31
0.0
  0
LINE
  5
29C
  8
DATA
  6
CONTINUOUS
 62
     7
 10
137.5
 20
329.0
 30
0.0
 11
137.5
 21
300.0
 31
0.0
  0
LINE
  5
29D
  8
DATA
  6
CONTINUOUS
 62
     7
 10
149.5
 20
329.0
 30
0.0
 11
137.5
 21
329.0
 31
0.0
  0
LINE
  5
29E
  8
DATA
  6
CONTINUOUS
 62
     7
 10
279.5
 20
300.0
 30
0.0
 11
137.5
 21
300.0
 31
0.0
  0
LINE
  5
29F
  8
DATA
  6
CONTINUOUS
 62
     7
 10
279.5
 20
327.0
 30
0.0
 11
137.5
 21
327.0
 31
0.0
  0
LINE
  5
2A0
  8
DATA
  6
CONTINUOUS
 62
     7
 10
149.5
 20
329.0
 30
0.0
 11
149.5
 21
327.0
 31
0.0
  0
LINE
  5
2A1
  8
DATA
  6
CONTINUOUS
 62
     7
 10
140.7077186008068
 20
331.0
 30
0.0
 11
139.50771860080681
 21
329.0
 31
0.0
  0
LINE
  5
2A2
  8
DATA
  6
CONTINUOUS
 62
     7
 10
145.7077186008068
 20
331.0
 30
0.0
 11
146.90771860080679
 21
329.0
 31
0.0
  0
LINE
  5
2A3
  8
DATA
  6
CONTINUOUS
 62
     7
 10
140.7077186008068
 20
331.0
 30
0.0
 11
145.7077186008068
 21
331.0
 31
0.0
  0
LINE
  5
2A4
  8
DATA
  6
CONTINUOUS
 62
     7
 10
279.5
 20
329.0
 30
0.0
 11
279.5
 21
300.0
 31
0.0
  0
LINE
  5
2A5
  8
DATA
  6
CONTINUOUS
 62
     7
 10
279.5
 20
329.0
 30
0.0
 11
267.5
 21
329.0
 31
0.0
  0
LINE
  5
2A6
  8
DATA
  6
CONTINUOUS
 62
     7
 10
267.5
 20
329.0
 30
0.0
 11
267.5
 21
327.0
 31
0.0
  0
LINE
  5
2A7
  8
DATA
  6
CONTINUOUS
 62
     7
 10
276.29228139919309
 20
331.0
 30
0.0
 11
277.49228139919319
 21
329.0
 31
0.0
  0
LINE
  5
2A8
  8
DATA
  6
CONTINUOUS
 62
     7
 10
271.29228139919309
 20
331.0
 30
0.0
 11
270.0922813991931
 21
329.0
 31
0.0
  0
LINE
  5
2A9
  8
DATA
  6
CONTINUOUS
 62
     7
 10
276.29228139919309
 20
331.0
 30
0.0
 11
271.29228139919309
 21
331.0
 31
0.0
  0
CIRCLE
  5
2AA
  8
DATA
  6
CONTINUOUS
 62
     7
 10
247.4562137980615
 20
311.0
 30
0.0
 40
4.1999999999999877
  0
CIRCLE
  5
2AB
  8
DATA
  6
CONTINUOUS
 62
     7
 10
263.60611401782501
 20
311.0
 30
0.0
 40
4.200000000000002
  0
CIRCLE
  5
2AC
  8
DATA
  6
CONTINUOUS
 62
     7
 10
231.72136056479201
 20
311.0
 30
0.0
 40
4.2000000000001023
  0
CIRCLE
  5
2AD
  8
DATA
  6
CONTINUOUS
 62
     7
 10
247.4562137980615
 20
311.0
 30
0.0
 40
1.75
  0
CIRCLE
  5
2AE
  8
DATA
  6
CONTINUOUS
 62
     7
 10
263.60611401782501
 20
311.0
 30
0.0
 40
1.75
  0
CIRCLE
  5
2AF
  8
DATA
  6
CONTINUOUS
 62
     7
 10
231.72136056479201
 20
311.0
 30
0.0
 40
1.750000000000014
  0
POLYLINE
  5
2B0
  8
DATA
  6
CONTINUOUS
 62
     7
 66
     1
 10
0.0
 20
0.0
 30
0.0
 70
     1
  0
VERTEX
  5
53B
  8
DATA
  6
CONTINUOUS
 62
     7
 10
213.5270401053055
 20
318.92556732918217
 30
0.0
  0
VERTEX
  5
53C
  8
DATA
  6
CONTINUOUS
 62
     7
 10
223.5270401053055
 20
318.92556732918217
 30
0.0
  0
VERTEX
  5
53D
  8
DATA
  6
CONTINUOUS
 62
     7
 10
223.5270401053055
 20
308.92556732918217
 30
0.0
  0
VERTEX
  5
53E
  8
DATA
  6
CONTINUOUS
 62
     7
 10
213.5270401053055
 20
308.92556732918217
 30
0.0
  0
SEQEND
  5
53F
  8
DATA
  6
CONTINUOUS
 62
     7
  0
TEXT
  5
2B7
  8
DATA
 62
     7
 10
162.84089565705591
 20
321.77947892335379
 30
0.0
 40
2.8097509765624999
  1
+5V DC
 50
180.0
 41
0.7
 11
162.84089565705591
 21
318.96972794679129
 31
0.0
 73
     3
  0
TEXT
  5
2B8
  8
DATA
 62
     7
 10
152.49586639204941
 20
307.2346646349572
 30
0.0
 40
2.8097509765624999
  1
Power
 50
180.0
 41
0.7
 11
152.49586639204941
 21
304.4249136583947
 31
0.0
 73
     3
  0
CIRCLE
  5
2B9
  8
DATA
  6
CONTINUOUS
 62
     7
 10
204.0004222299423
 20
312.96553332201643
 30
0.0
 40
1.175000000000068
  0
POLYLINE
  5
2BA
  8
DATA
  6
CONTINUOUS
 62
     7
 66
     1
 10
0.0
 20
0.0
 30
0.0
 70
     1
  0
VERTEX
  5
540
  8
DATA
  6
CONTINUOUS
 62
     7
 10
204.0004222299423
 20
310.26553332201638
 30
0.0
  0
VERTEX
  5
541
  8
DATA
  6
CONTINUOUS
 62
     7
 10
206.3386908201602
 20
311.61553332201629
 30
0.0
  0
VERTEX
  5
542
  8
DATA
  6
CONTINUOUS
 62
     7
 10
206.3386908201602
 20
314.31553332201639
 30
0.0
  0
VERTEX
  5
543
  8
DATA
  6
CONTINUOUS
 62
     7
 10
204.0004222299423
 20
315.66553332201642
 30
0.0
  0
VERTEX
  5
544
  8
DATA
  6
CONTINUOUS
 62
     7
 10
201.66215363972421
 20
314.31553332201639
 30
0.0
  0
VERTEX
  5
545
  8
DATA
  6
CONTINUOUS
 62
     7
 10
201.66215363972421
 20
311.61553332201629
 30
0.0
  0
SEQEND
  5
546
  8
DATA
  6
CONTINUOUS
 62
     7
  0
CIRCLE
  5
2C3
  8
DATA
  6
CONTINUOUS
 62
     7
 10
171.50042222994171
 20
312.96553332201643
 30
0.0
 40
1.175000000000068
  0
POLYLINE
  5
2C4
  8
DATA
  6
CONTINUOUS
 62
     7
 66
     1
 10
0.0
 20
0.0
 30
0.0
 70
     1
  0
VERTEX
  5
547
  8
DATA
  6
CONTINUOUS
 62
     7
 10
171.50042222994171
 20
310.26553332201638
 30
0.0
  0
VERTEX
  5
548
  8
DATA
  6
CONTINUOUS
 62
     7
 10
173.8386908201596
 20
311.61553332201629
 30
0.0
  0
VERTEX
  5
549
  8
DATA
  6
CONTINUOUS
 62
     7
 10
173.8386908201596
 20
314.31553332201639
 30
0.0
  0
VERTEX
  5
54A
  8
DATA
  6
CONTINUOUS
 62
     7
 10
171.50042222994171
 20
315.66553332201642
 30
0.0
  0
VERTEX
  5
54B
  8
DATA
  6
CONTINUOUS
 62
     7
 10
169.16215363972361
 20
314.31553332201639
 30
0.0
  0
VERTEX
  5
54C
  8
DATA
  6
CONTINUOUS
 62
     7
 10
169.16215363972361
 20
311.61553332201629
 30
0.0
  0
SEQEND
  5
54D
  8
DATA
  6
CONTINUOUS
 62
     7
  0
LINE
  5
2CD
  8
DATA
  6
CONTINUOUS
 62
     7
 10
198.70032711713401
 20
309.0405333220163
 30
0.0
 11
176.80051734274971
 21
309.0405333220163
 31
0.0
  0
LINE
  5
2CE
  8
DATA
  6
CONTINUOUS
 62
     7
 10
177.35943454020199
 20
316.89053332201638
 30
0.0
 11
198.14140991968159
 21
316.89053332201638
 31
0.0
  0
POLYLINE
  5
2CF
  8
DATA
  6
CONTINUOUS
 62
     7
 66
     1
 10
0.0
 20
0.0
 30
0.0
 70
     1
  0
VERTEX
  5
54E
  8
DATA
  6
CONTINUOUS
 62
     7
 10
197.22048840112149
 20
313.7305333220163
 30
0.0
  0
VERTEX
  5
54F
  8
DATA
  6
CONTINUOUS
 62
     7
 10
198.75048840112149
 20
313.7305333220163
 30
0.0
  0
VERTEX
  5
550
  8
DATA
  6
CONTINUOUS
 62
     7
 10
198.75048840112149
 20
312.20053332201638
 30
0.0
  0
VERTEX
  5
551
  8
DATA
  6
CONTINUOUS
 62
     7
 10
197.22048840112149
 20
312.20053332201638
 30
0.0
  0
SEQEND
  5
552
  8
DATA
  6
CONTINUOUS
 62
     7
  0
POLYLINE
  5
2D6
  8
DATA
  6
CONTINUOUS
 62
     7
 66
     1
 10
0.0
 20
0.0
 30
0.0
 70
     1
  0
VERTEX
  5
553
  8
DATA
  6
CONTINUOUS
 62
     7
 10
195.22048840112149
 20
313.7305333220163
 30
0.0
  0
VERTEX
  5
554
  8
DATA
  6
CONTINUOUS
 62
     7
 10
196.75048840112149
 20
313.7305333220163
 30
0.0
  0
VERTEX
  5
555
  8
DATA
  6
CONTINUOUS
 62
     7
 10
196.75048840112149
 20
312.20053332201638
 30
0.0
  0
VERTEX
  5
556
  8
DATA
  6
CONTINUOUS
 62
     7
 10
195.22048840112149
 20
312.20053332201638
 30
0.0
  0
SEQEND
  5
557
  8
DATA
  6
CONTINUOUS
 62
     7
  0
POLYLINE
  5
2DD
  8
DATA
  6
CONTINUOUS
 62
     7
 66
     1
 10
0.0
 20
0.0
 30
0.0
 70
     1
  0
VERTEX
  5
558
  8
DATA
  6
CONTINUOUS
 62
     7
 10
193.22048840112149
 20
313.7305333220163
 30
0.0
  0
VERTEX
  5
559
  8
DATA
  6
CONTINUOUS
 62
     7
 10
194.75048840112149
 20
313.7305333220163
 30
0.0
  0
VERTEX
  5
55A
  8
DATA
  6
CONTINUOUS
 62
     7
 10
194.75048840112149
 20
312.20053332201638
 30
0.0
  0
VERTEX
  5
55B
  8
DATA
  6
CONTINUOUS
 62
     7
 10
193.22048840112149
 20
312.20053332201638
 30
0.0
  0
SEQEND
  5
55C
  8
DATA
  6
CONTINUOUS
 62
     7
  0
POLYLINE
  5
2E4
  8
DATA
  6
CONTINUOUS
 62
     7
 66
     1
 10
0.0
 20
0.0
 30
0.0
 70
     1
  0
VERTEX
  5
55D
  8
DATA
  6
CONTINUOUS
 62
     7
 10
191.2204884011216
 20
313.7305333220163
 30
0.0
  0
VERTEX
  5
55E
  8
DATA
  6
CONTINUOUS
 62
     7
 10
192.75048840112149
 20
313.7305333220163
 30
0.0
  0
VERTEX
  5
55F
  8
DATA
  6
CONTINUOUS
 62
     7
 10
192.75048840112149
 20
312.20053332201638
 30
0.0
  0
VERTEX
  5
560
  8
DATA
  6
CONTINUOUS
 62
     7
 10
191.2204884011216
 20
312.20053332201638
 30
0.0
  0
SEQEND
  5
561
  8
DATA
  6
CONTINUOUS
 62
     7
  0
POLYLINE
  5
2EB
  8
DATA
  6
CONTINUOUS
 62
     7
 66
     1
 10
0.0
 20
0.0
 30
0.0
 70
     1
  0
VERTEX
  5
562
  8
DATA
  6
CONTINUOUS
 62
     7
 10
189.2204884011214
 20
313.7305333220163
 30
0.0
  0
VERTEX
  5
563
  8
DATA
  6
CONTINUOUS
 62
     7
 10
190.75048840112149
 20
313.7305333220163
 30
0.0
  0
VERTEX
  5
564
  8
DATA
  6
CONTINUOUS
 62
     7
 10
190.75048840112149
 20
312.20053332201638
 30
0.0
  0
VERTEX
  5
565
  8
DATA
  6
CONTINUOUS
 62
     7
 10
189.2204884011214
 20
312.20053332201638
 30
0.0
  0
SEQEND
  5
566
  8
DATA
  6
CONTINUOUS
 62
     7
  0
POLYLINE
  5
2F2
  8
DATA
  6
CONTINUOUS
 62
     7
 66
     1
 10
0.0
 20
0.0
 30
0.0
 70
     1
  0
VERTEX
  5
567
  8
DATA
  6
CONTINUOUS
 62
     7
 10
187.22048840112129
 20
313.7305333220163
 30
0.0
  0
VERTEX
  5
568
  8
DATA
  6
CONTINUOUS
 62
     7
 10
188.75048840112129
 20
313.7305333220163
 30
0.0
  0
VERTEX
  5
569
  8
DATA
  6
CONTINUOUS
 62
     7
 10
188.75048840112129
 20
312.20053332201638
 30
0.0
  0
VERTEX
  5
56A
  8
DATA
  6
CONTINUOUS
 62
     7
 10
187.22048840112129
 20
312.20053332201638
 30
0.0
  0
SEQEND
  5
56B
  8
DATA
  6
CONTINUOUS
 62
     7
  0
POLYLINE
  5
2F9
  8
DATA
  6
CONTINUOUS
 62
     7
 66
     1
 10
0.0
 20
0.0
 30
0.0
 70
     1
  0
VERTEX
  5
56C
  8
DATA
  6
CONTINUOUS
 62
     7
 10
185.22048840112109
 20
313.7305333220163
 30
0.0
  0
VERTEX
  5
56D
  8
DATA
  6
CONTINUOUS
 62
     7
 10
186.7504884011212
 20
313.7305333220163
 30
0.0
  0
VERTEX
  5
56E
  8
DATA
  6
CONTINUOUS
 62
     7
 10
186.7504884011212
 20
312.20053332201638
 30
0.0
  0
VERTEX
  5
56F
  8
DATA
  6
CONTINUOUS
 62
     7
 10
185.22048840112109
 20
312.20053332201638
 30
0.0
  0
SEQEND
  5
570
  8
DATA
  6
CONTINUOUS
 62
     7
  0
POLYLINE
  5
300
  8
DATA
  6
CONTINUOUS
 62
     7
 66
     1
 10
0.0
 20
0.0
 30
0.0
 70
     1
  0
VERTEX
  5
571
  8
DATA
  6
CONTINUOUS
 62
     7
 10
183.22048840112089
 20
313.7305333220163
 30
0.0
  0
VERTEX
  5
572
  8
DATA
  6
CONTINUOUS
 62
     7
 10
184.750488401121
 20
313.7305333220163
 30
0.0
  0
VERTEX
  5
573
  8
DATA
  6
CONTINUOUS
 62
     7
 10
184.750488401121
 20
312.20053332201638
 30
0.0
  0
VERTEX
  5
574
  8
DATA
  6
CONTINUOUS
 62
     7
 10
183.22048840112089
 20
312.20053332201638
 30
0.0
  0
SEQEND
  5
575
  8
DATA
  6
CONTINUOUS
 62
     7
  0
POLYLINE
  5
307
  8
DATA
  6
CONTINUOUS
 62
     7
 66
     1
 10
0.0
 20
0.0
 30
0.0
 70
     1
  0
VERTEX
  5
576
  8
DATA
  6
CONTINUOUS
 62
     7
 10
197.22048840112149
 20
311.7305333220163
 30
0.0
  0
VERTEX
  5
577
  8
DATA
  6
CONTINUOUS
 62
     7
 10
198.75048840112149
 20
311.7305333220163
 30
0.0
  0
VERTEX
  5
578
  8
DATA
  6
CONTINUOUS
 62
     7
 10
198.75048840112149
 20
310.20053332201638
 30
0.0
  0
VERTEX
  5
579
  8
DATA
  6
CONTINUOUS
 62
     7
 10
197.22048840112149
 20
310.20053332201638
 30
0.0
  0
SEQEND
  5
57A
  8
DATA
  6
CONTINUOUS
 62
     7
  0
POLYLINE
  5
30E
  8
DATA
  6
CONTINUOUS
 62
     7
 66
     1
 10
0.0
 20
0.0
 30
0.0
 70
     1
  0
VERTEX
  5
57B
  8
DATA
  6
CONTINUOUS
 62
     7
 10
195.22048840112149
 20
311.7305333220163
 30
0.0
  0
VERTEX
  5
57C
  8
DATA
  6
CONTINUOUS
 62
     7
 10
196.75048840112149
 20
311.7305333220163
 30
0.0
  0
VERTEX
  5
57D
  8
DATA
  6
CONTINUOUS
 62
     7
 10
196.75048840112149
 20
310.20053332201638
 30
0.0
  0
VERTEX
  5
57E
  8
DATA
  6
CONTINUOUS
 62
     7
 10
195.22048840112149
 20
310.20053332201638
 30
0.0
  0
SEQEND
  5
57F
  8
DATA
  6
CONTINUOUS
 62
     7
  0
POLYLINE
  5
315
  8
DATA
  6
CONTINUOUS
 62
     7
 66
     1
 10
0.0
 20
0.0
 30
0.0
 70
     1
  0
VERTEX
  5
580
  8
DATA
  6
CONTINUOUS
 62
     7
 10
193.22048840112149
 20
311.7305333220163
 30
0.0
  0
VERTEX
  5
581
  8
DATA
  6
CONTINUOUS
 62
     7
 10
194.75048840112149
 20
311.7305333220163
 30
0.0
  0
VERTEX
  5
582
  8
DATA
  6
CONTINUOUS
 62
     7
 10
194.75048840112149
 20
310.20053332201638
 30
0.0
  0
VERTEX
  5
583
  8
DATA
  6
CONTINUOUS
 62
     7
 10
193.22048840112149
 20
310.20053332201638
 30
0.0
  0
SEQEND
  5
584
  8
DATA
  6
CONTINUOUS
 62
     7
  0
POLYLINE
  5
31C
  8
DATA
  6
CONTINUOUS
 62
     7
 66
     1
 10
0.0
 20
0.0
 30
0.0
 70
     1
  0
VERTEX
  5
585
  8
DATA
  6
CONTINUOUS
 62
     7
 10
191.2204884011216
 20
311.7305333220163
 30
0.0
  0
VERTEX
  5
586
  8
DATA
  6
CONTINUOUS
 62
     7
 10
192.75048840112149
 20
311.7305333220163
 30
0.0
  0
VERTEX
  5
587
  8
DATA
  6
CONTINUOUS
 62
     7
 10
192.75048840112149
 20
310.20053332201638
 30
0.0
  0
VERTEX
  5
588
  8
DATA
  6
CONTINUOUS
 62
     7
 10
191.2204884011216
 20
310.20053332201638
 30
0.0
  0
SEQEND
  5
589
  8
DATA
  6
CONTINUOUS
 62
     7
  0
POLYLINE
  5
323
  8
DATA
  6
CONTINUOUS
 62
     7
 66
     1
 10
0.0
 20
0.0
 30
0.0
 70
     1
  0
VERTEX
  5
58A
  8
DATA
  6
CONTINUOUS
 62
     7
 10
189.2204884011214
 20
311.7305333220163
 30
0.0
  0
VERTEX
  5
58B
  8
DATA
  6
CONTINUOUS
 62
     7
 10
190.75048840112149
 20
311.7305333220163
 30
0.0
  0
VERTEX
  5
58C
  8
DATA
  6
CONTINUOUS
 62
     7
 10
190.75048840112149
 20
310.20053332201638
 30
0.0
  0
VERTEX
  5
58D
  8
DATA
  6
CONTINUOUS
 62
     7
 10
189.2204884011214
 20
310.20053332201638
 30
0.0
  0
SEQEND
  5
58E
  8
DATA
  6
CONTINUOUS
 62
     7
  0
POLYLINE
  5
32A
  8
DATA
  6
CONTINUOUS
 62
     7
 66
     1
 10
0.0
 20
0.0
 30
0.0
 70
     1
  0
VERTEX
  5
58F
  8
DATA
  6
CONTINUOUS
 62
     7
 10
187.22048840112129
 20
311.7305333220163
 30
0.0
  0
VERTEX
  5
590
  8
DATA
  6
CONTINUOUS
 62
     7
 10
188.75048840112129
 20
311.7305333220163
 30
0.0
  0
VERTEX
  5
591
  8
DATA
  6
CONTINUOUS
 62
     7
 10
188.75048840112129
 20
310.20053332201638
 30
0.0
  0
VERTEX
  5
592
  8
DATA
  6
CONTINUOUS
 62
     7
 10
187.22048840112129
 20
310.20053332201638
 30
0.0
  0
SEQEND
  5
593
  8
DATA
  6
CONTINUOUS
 62
     7
  0
POLYLINE
  5
331
  8
DATA
  6
CONTINUOUS
 62
     7
 66
     1
 10
0.0
 20
0.0
 30
0.0
 70
     1
  0
VERTEX
  5
594
  8
DATA
  6
CONTINUOUS
 62
     7
 10
185.22048840112109
 20
311.7305333220163
 30
0.0
  0
VERTEX
  5
595
  8
DATA
  6
CONTINUOUS
 62
     7
 10
186.7504884011212
 20
311.7305333220163
 30
0.0
  0
VERTEX
  5
596
  8
DATA
  6
CONTINUOUS
 62
     7
 10
186.7504884011212
 20
310.20053332201638
 30
0.0
  0
VERTEX
  5
597
  8
DATA
  6
CONTINUOUS
 62
     7
 10
185.22048840112109
 20
310.20053332201638
 30
0.0
  0
SEQEND
  5
598
  8
DATA
  6
CONTINUOUS
 62
     7
  0
POLYLINE
  5
338
  8
DATA
  6
CONTINUOUS
 62
     7
 66
     1
 10
0.0
 20
0.0
 30
0.0
 70
     1
  0
VERTEX
  5
599
  8
DATA
  6
CONTINUOUS
 62
     7
 10
183.22048840112089
 20
311.7305333220163
 30
0.0
  0
VERTEX
  5
59A
  8
DATA
  6
CONTINUOUS
 62
     7
 10
184.750488401121
 20
311.7305333220163
 30
0.0
  0
VERTEX
  5
59B
  8
DATA
  6
CONTINUOUS
 62
     7
 10
184.750488401121
 20
310.20053332201638
 30
0.0
  0
VERTEX
  5
59C
  8
DATA
  6
CONTINUOUS
 62
     7
 10
183.22048840112089
 20
310.20053332201638
 30
0.0
  0
SEQEND
  5
59D
  8
DATA
  6
CONTINUOUS
 62
     7
  0
POLYLINE
  5
33F
  8
DATA
  6
CONTINUOUS
 62
     7
 66
     1
 10
0.0
 20
0.0
 30
0.0
 70
     1
  0
VERTEX
  5
59E
  8
DATA
  6
CONTINUOUS
 62
     7
 10
197.22048840112149
 20
315.7305333220163
 30
0.0
  0
VERTEX
  5
59F
  8
DATA
  6
CONTINUOUS
 62
     7
 10
198.75048840112149
 20
315.7305333220163
 30
0.0
  0
VERTEX
  5
5A0
  8
DATA
  6
CONTINUOUS
 62
     7
 10
198.75048840112149
 20
314.20053332201638
 30
0.0
  0
VERTEX
  5
5A1
  8
DATA
  6
CONTINUOUS
 62
     7
 10
197.22048840112149
 20
314.20053332201638
 30
0.0
  0
SEQEND
  5
5A2
  8
DATA
  6
CONTINUOUS
 62
     7
  0
POLYLINE
  5
346
  8
DATA
  6
CONTINUOUS
 62
     7
 66
     1
 10
0.0
 20
0.0
 30
0.0
 70
     1
  0
VERTEX
  5
5A3
  8
DATA
  6
CONTINUOUS
 62
     7
 10
195.22048840112149
 20
315.7305333220163
 30
0.0
  0
VERTEX
  5
5A4
  8
DATA
  6
CONTINUOUS
 62
     7
 10
196.75048840112149
 20
315.7305333220163
 30
0.0
  0
VERTEX
  5
5A5
  8
DATA
  6
CONTINUOUS
 62
     7
 10
196.75048840112149
 20
314.20053332201638
 30
0.0
  0
VERTEX
  5
5A6
  8
DATA
  6
CONTINUOUS
 62
     7
 10
195.22048840112149
 20
314.20053332201638
 30
0.0
  0
SEQEND
  5
5A7
  8
DATA
  6
CONTINUOUS
 62
     7
  0
POLYLINE
  5
34D
  8
DATA
  6
CONTINUOUS
 62
     7
 66
     1
 10
0.0
 20
0.0
 30
0.0
 70
     1
  0
VERTEX
  5
5A8
  8
DATA
  6
CONTINUOUS
 62
     7
 10
193.22048840112149
 20
315.7305333220163
 30
0.0
  0
VERTEX
  5
5A9
  8
DATA
  6
CONTINUOUS
 62
     7
 10
194.75048840112149
 20
315.7305333220163
 30
0.0
  0
VERTEX
  5
5AA
  8
DATA
  6
CONTINUOUS
 62
     7
 10
194.75048840112149
 20
314.20053332201638
 30
0.0
  0
VERTEX
  5
5AB
  8
DATA
  6
CONTINUOUS
 62
     7
 10
193.22048840112149
 20
314.20053332201638
 30
0.0
  0
SEQEND
  5
5AC
  8
DATA
  6
CONTINUOUS
 62
     7
  0
POLYLINE
  5
354
  8
DATA
  6
CONTINUOUS
 62
     7
 66
     1
 10
0.0
 20
0.0
 30
0.0
 70
     1
  0
VERTEX
  5
5AD
  8
DATA
  6
CONTINUOUS
 62
     7
 10
191.2204884011216
 20
315.7305333220163
 30
0.0
  0
VERTEX
  5
5AE
  8
DATA
  6
CONTINUOUS
 62
     7
 10
192.75048840112149
 20
315.7305333220163
 30
0.0
  0
VERTEX
  5
5AF
  8
DATA
  6
CONTINUOUS
 62
     7
 10
192.75048840112149
 20
314.20053332201638
 30
0.0
  0
VERTEX
  5
5B0
  8
DATA
  6
CONTINUOUS
 62
     7
 10
191.2204884011216
 20
314.20053332201638
 30
0.0
  0
SEQEND
  5
5B1
  8
DATA
  6
CONTINUOUS
 62
     7
  0
POLYLINE
  5
35B
  8
DATA
  6
CONTINUOUS
 62
     7
 66
     1
 10
0.0
 20
0.0
 30
0.0
 70
     1
  0
VERTEX
  5
5B2
  8
DATA
  6
CONTINUOUS
 62
     7
 10
189.2204884011214
 20
315.7305333220163
 30
0.0
  0
VERTEX
  5
5B3
  8
DATA
  6
CONTINUOUS
 62
     7
 10
190.75048840112149
 20
315.7305333220163
 30
0.0
  0
VERTEX
  5
5B4
  8
DATA
  6
CONTINUOUS
 62
     7
 10
190.75048840112149
 20
314.20053332201638
 30
0.0
  0
VERTEX
  5
5B5
  8
DATA
  6
CONTINUOUS
 62
     7
 10
189.2204884011214
 20
314.20053332201638
 30
0.0
  0
SEQEND
  5
5B6
  8
DATA
  6
CONTINUOUS
 62
     7
  0
POLYLINE
  5
362
  8
DATA
  6
CONTINUOUS
 62
     7
 66
     1
 10
0.0
 20
0.0
 30
0.0
 70
     1
  0
VERTEX
  5
5B7
  8
DATA
  6
CONTINUOUS
 62
     7
 10
187.22048840112129
 20
315.7305333220163
 30
0.0
  0
VERTEX
  5
5B8
  8
DATA
  6
CONTINUOUS
 62
     7
 10
188.75048840112129
 20
315.7305333220163
 30
0.0
  0
VERTEX
  5
5B9
  8
DATA
  6
CONTINUOUS
 62
     7
 10
188.75048840112129
 20
314.20053332201638
 30
0.0
  0
VERTEX
  5
5BA
  8
DATA
  6
CONTINUOUS
 62
     7
 10
187.22048840112129
 20
314.20053332201638
 30
0.0
  0
SEQEND
  5
5BB
  8
DATA
  6
CONTINUOUS
 62
     7
  0
POLYLINE
  5
369
  8
DATA
  6
CONTINUOUS
 62
     7
 66
     1
 10
0.0
 20
0.0
 30
0.0
 70
     1
  0
VERTEX
  5
5BC
  8
DATA
  6
CONTINUOUS
 62
     7
 10
185.22048840112109
 20
315.7305333220163
 30
0.0
  0
VERTEX
  5
5BD
  8
DATA
  6
CONTINUOUS
 62
     7
 10
186.7504884011212
 20
315.7305333220163
 30
0.0
  0
VERTEX
  5
5BE
  8
DATA
  6
CONTINUOUS
 62
     7
 10
186.7504884011212
 20
314.20053332201638
 30
0.0
  0
VERTEX
  5
5BF
  8
DATA
  6
CONTINUOUS
 62
     7
 10
185.22048840112109
 20
314.20053332201638
 30
0.0
  0
SEQEND
  5
5C0
  8
DATA
  6
CONTINUOUS
 62
     7
  0
POLYLINE
  5
370
  8
DATA
  6
CONTINUOUS
 62
     7
 66
     1
 10
0.0
 20
0.0
 30
0.0
 70
     1
  0
VERTEX
  5
5C1
  8
DATA
  6
CONTINUOUS
 62
     7
 10
183.22048840112089
 20
315.7305333220163
 30
0.0
  0
VERTEX
  5
5C2
  8
DATA
  6
CONTINUOUS
 62
     7
 10
184.750488401121
 20
315.7305333220163
 30
0.0
  0
VERTEX
  5
5C3
  8
DATA
  6
CONTINUOUS
 62
     7
 10
184.750488401121
 20
314.20053332201638
 30
0.0
  0
VERTEX
  5
5C4
  8
DATA
  6
CONTINUOUS
 62
     7
 10
183.22048840112089
 20
314.20053332201638
 30
0.0
  0
SEQEND
  5
5C5
  8
DATA
  6
CONTINUOUS
 62
     7
  0
POLYLINE
  5
377
  8
DATA
  6
CONTINUOUS
 62
     7
 66
     1
 10
0.0
 20
0.0
 30
0.0
  0
VERTEX
  5
5C6
  8
DATA
  6
CONTINUOUS
 62
     7
 10
179.20042222994141
 20
312.56553332201639
 30
0.0
  0
VERTEX
  5
5C7
  8
DATA
  6
CONTINUOUS
 62
     7
 10
177.10042222994139
 20
312.56553332201639
 30
0.0
  0
VERTEX
  5
5C8
  8
DATA
  6
CONTINUOUS
 62
     7
 10
177.10042222994139
 20
313.36553332201629
 30
0.0
  0
VERTEX
  5
5C9
  8
DATA
  6
CONTINUOUS
 62
     7
 10
179.20042222994141
 20
313.36553332201629
 30
0.0
  0
SEQEND
  5
5CA
  8
DATA
  6
CONTINUOUS
 62
     7
  0
POLYLINE
  5
37E
  8
DATA
  6
CONTINUOUS
 62
     7
 66
     1
 10
0.0
 20
0.0
 30
0.0
  0
VERTEX
  5
5CB
  8
DATA
  6
CONTINUOUS
 62
     7
 10
180.00042222994131
 20
313.36553332201629
 30
0.0
  0
VERTEX
  5
5CC
  8
DATA
  6
CONTINUOUS
 62
     7
 10
182.10042222994139
 20
313.36553332201629
 30
0.0
  0
VERTEX
  5
5CD
  8
DATA
  6
CONTINUOUS
 62
     7
 10
182.10042222994139
 20
312.56553332201639
 30
0.0
  0
VERTEX
  5
5CE
  8
DATA
  6
CONTINUOUS
 62
     7
 10
180.00042222994131
 20
312.56553332201639
 30
0.0
  0
SEQEND
  5
5CF
  8
DATA
  6
CONTINUOUS
 62
     7
  0
POLYLINE
  5
385
  8
DATA
  6
CONTINUOUS
 62
     7
 66
     1
 10
0.0
 20
0.0
 30
0.0
  0
VERTEX
  5
5D0
  8
DATA
  6
CONTINUOUS
 62
     7
 10
179.20042222994141
 20
313.36553332201629
 30
0.0
  0
VERTEX
  5
5D1
  8
DATA
  6
CONTINUOUS
 62
     7
 10
179.20042222994141
 20
315.46553332201643
 30
0.0
  0
VERTEX
  5
5D2
  8
DATA
  6
CONTINUOUS
 62
     7
 10
180.00042222994131
 20
315.46553332201643
 30
0.0
  0
VERTEX
  5
5D3
  8
DATA
  6
CONTINUOUS
 62
     7
 10
180.00042222994131
 20
313.36553332201629
 30
0.0
  0
SEQEND
  5
5D4
  8
DATA
  6
CONTINUOUS
 62
     7
  0
POLYLINE
  5
38C
  8
DATA
  6
CONTINUOUS
 62
     7
 66
     1
 10
0.0
 20
0.0
 30
0.0
  0
VERTEX
  5
5D5
  8
DATA
  6
CONTINUOUS
 62
     7
 10
180.00042222994131
 20
312.56553332201639
 30
0.0
  0
VERTEX
  5
5D6
  8
DATA
  6
CONTINUOUS
 62
     7
 10
180.00042222994131
 20
310.46553332201643
 30
0.0
  0
VERTEX
  5
5D7
  8
DATA
  6
CONTINUOUS
 62
     7
 10
179.20042222994141
 20
310.46553332201643
 30
0.0
  0
VERTEX
  5
5D8
  8
DATA
  6
CONTINUOUS
 62
     7
 10
179.20042222994141
 20
312.56553332201639
 30
0.0
  0
SEQEND
  5
5D9
  8
DATA
  6
CONTINUOUS
 62
     7
  0
POLYLINE
  5
393
  8
DATA
  6
CONTINUOUS
 62
     7
 66
     1
 10
0.0
 20
0.0
 30
0.0
 70
     1
  0
VERTEX
  5
5DA
  8
DATA
  6
CONTINUOUS
 62
     7
 10
180.460706660413
 20
312.2061055113665
 30
0.0
  0
VERTEX
  5
5DB
  8
DATA
  6
CONTINUOUS
 62
     7
 10
181.46070666041311
 20
312.2061055113665
 30
0.0
  0
VERTEX
  5
5DC
  8
DATA
  6
CONTINUOUS
 62
     7
 10
181.46070666041311
 20
311.20610551136639
 30
0.0
  0
VERTEX
  5
5DD
  8
DATA
  6
CONTINUOUS
 62
     7
 10
180.460706660413
 20
311.20610551136639
 30
0.0
  0
SEQEND
  5
5DE
  8
DATA
  6
CONTINUOUS
 62
     7
  0
POLYLINE
  5
39A
  8
DATA
  6
CONTINUOUS
 62
     7
 66
     1
 10
0.0
 20
0.0
 30
0.0
 70
     1
  0
VERTEX
  5
5DF
  8
DATA
  6
CONTINUOUS
 62
     7
 10
177.74013779946961
 20
312.2061055113665
 30
0.0
  0
VERTEX
  5
5E0
  8
DATA
  6
CONTINUOUS
 62
     7
 10
178.74013779946961
 20
312.2061055113665
 30
0.0
  0
VERTEX
  5
5E1
  8
DATA
  6
CONTINUOUS
 62
     7
 10
178.74013779946961
 20
311.20610551136639
 30
0.0
  0
VERTEX
  5
5E2
  8
DATA
  6
CONTINUOUS
 62
     7
 10
177.74013779946961
 20
311.20610551136639
 30
0.0
  0
SEQEND
  5
5E3
  8
DATA
  6
CONTINUOUS
 62
     7
  0
POLYLINE
  5
3A1
  8
DATA
  6
CONTINUOUS
 62
     7
 66
     1
 10
0.0
 20
0.0
 30
0.0
 70
     1
  0
VERTEX
  5
5E4
  8
DATA
  6
CONTINUOUS
 62
     7
 10
180.460706660413
 20
314.72496113266629
 30
0.0
  0
VERTEX
  5
5E5
  8
DATA
  6
CONTINUOUS
 62
     7
 10
181.46070666041311
 20
314.72496113266629
 30
0.0
  0
VERTEX
  5
5E6
  8
DATA
  6
CONTINUOUS
 62
     7
 10
181.46070666041311
 20
313.72496113266618
 30
0.0
  0
VERTEX
  5
5E7
  8
DATA
  6
CONTINUOUS
 62
     7
 10
180.460706660413
 20
313.72496113266618
 30
0.0
  0
SEQEND
  5
5E8
  8
DATA
  6
CONTINUOUS
 62
     7
  0
POLYLINE
  5
3A8
  8
DATA
  6
CONTINUOUS
 62
     7
 66
     1
 10
0.0
 20
0.0
 30
0.0
 70
     1
  0
VERTEX
  5
5E9
  8
DATA
  6
CONTINUOUS
 62
     7
 10
177.74013779946961
 20
314.72496113266629
 30
0.0
  0
VERTEX
  5
5EA
  8
DATA
  6
CONTINUOUS
 62
     7
 10
178.74013779946961
 20
314.72496113266629
 30
0.0
  0
VERTEX
  5
5EB
  8
DATA
  6
CONTINUOUS
 62
     7
 10
178.74013779946961
 20
313.72496113266618
 30
0.0
  0
VERTEX
  5
5EC
  8
DATA
  6
CONTINUOUS
 62
     7
 10
177.74013779946961
 20
313.72496113266618
 30
0.0
  0
SEQEND
  5
5ED
  8
DATA
  6
CONTINUOUS
 62
     7
  0
LINE
  5
3AF
  8
DATA
  6
CONTINUOUS
 62
     7
 10
199.69579404788931
 20
310.13564162750259
 30
0.0
 11
199.13687685043701
 21
315.98564162750262
 31
0.0
  0
LINE
  5
3B0
  8
DATA
  6
CONTINUOUS
 62
     7
 10
175.8050504119945
 20
310.13564162750259
 30
0.0
 11
176.36396760944669
 21
315.98564162750262
 31
0.0
  0
ARC
  5
3B1
  8
DATA
  6
CONTINUOUS
 62
     7
 10
198.70032711713401
 20
310.04053332201642
 30
0.0
 40
1.0
 50
270.0
 51
5.4575534851074963
  0
ARC
  5
3B2
  8
DATA
  6
CONTINUOUS
 62
     7
 10
176.80051734274971
 20
310.04053332201642
 30
0.0
 40
0.9999999999999051
 50
174.54244651489191
 51
270.0
  0
ARC
  5
3B3
  8
DATA
  6
CONTINUOUS
 62
     7
 10
198.14140991968159
 20
315.89053332201638
 30
0.0
 40
1.0000000000000031
 50
5.457553485107554
 51
89.999999999999986
  0
ARC
  5
3B4
  8
DATA
  6
CONTINUOUS
 62
     7
 10
177.35943454020199
 20
315.89053332201638
 30
0.0
 40
1.0
 50
90.0
 51
174.54244651489509
  0
TEXT
  5
3B5
  8
DATA
 62
     7
 10
193.18005566018411
 20
307.34289300138261
 30
0.0
 40
2.8097509765624999
  1
DVI Out
 50
180.0
 41
0.7
 11
193.18005566018411
 21
304.53314202482011
 31
0.0
 73
     3
  0
CIRCLE
  5
3B6
  8
DATA
  6
CONTINUOUS
 62
     7
 10
147.5651730030205
 20
313.0
 30
0.0
 40
1.449999999999988
  0
CIRCLE
  5
3B7
  8
DATA
  6
CONTINUOUS
 62
     7
 10
157.4651730030204
 20
313.0
 30
0.0
 40
3.25
  0
CIRCLE
  5
3B8
  8
DATA
  6
CONTINUOUS
 62
     7
 10
157.4651730030204
 20
313.0
 30
0.0
 40
0.5
  0
LINE
  5
3B9
  8
DATA
  6
CONTINUOUS
 62
     7
 10
227.37228951068579
 20
287.25
 30
0.0
 11
227.37228951068579
 21
279.75
 31
0.0
  0
LINE
  5
3BA
  8
DATA
  6
CONTINUOUS
 62
     7
 10
235.7531985027598
 20
287.25
 30
0.0
 11
235.7531985027598
 21
279.75
 31
0.0
  0
LINE
  5
3BB
  8
DATA
  6
CONTINUOUS
 62
     7
 10
242.37228951068579
 20
287.25
 30
0.0
 11
242.37228951068579
 21
279.75
 31
0.0
  0
LINE
  5
3BC
  8
DATA
  6
CONTINUOUS
 62
     7
 10
250.77228951068579
 20
287.25
 30
0.0
 11
250.77228951068579
 21
279.75
 31
0.0
  0
LINE
  5
3BD
  8
DATA
  6
CONTINUOUS
 62
     7
 10
258.37228951068568
 20
287.25
 30
0.0
 11
258.37228951068568
 21
279.75
 31
0.0
  0
LINE
  5
3BE
  8
DATA
  6
CONTINUOUS
 62
     7
 10
266.77228951068582
 20
287.25
 30
0.0
 11
266.77228951068582
 21
279.75
 31
0.0
  0
LINE
  5
3BF
  8
DATA
  6
CONTINUOUS
 62
     7
 10
227.37228951068579
 20
287.25
 30
0.0
 11
235.7531985027598
 21
287.25
 31
0.0
  0
LINE
  5
3C0
  8
DATA
  6
CONTINUOUS
 62
     7
 10
242.37228951068579
 20
287.25
 30
0.0
 11
250.77228951068579
 21
287.25
 31
0.0
  0
LINE
  5
3C1
  8
DATA
  6
CONTINUOUS
 62
     7
 10
258.37228951068568
 20
287.25
 30
0.0
 11
266.77228951068582
 21
287.25
 31
0.0
  0
TEXT
  5
3C2
  8
DATA
 62
     7
 10
248.25992974490919
 20
321.67621162971972
 30
0.0
 40
2.8097509765624999
  1
R
 50
180.0
 41
0.7
 11
248.25992974490919
 21
318.86646065315722
 31
0.0
 73
     3
  0
TEXT
  5
3C3
  8
DATA
 62
     7
 10
264.55435628698302
 20
321.74519870483681
 30
0.0
 40
2.8097509765624999
  1
L
 50
180.0
 41
0.7
 11
264.55435628698302
 21
318.93544772827431
 31
0.0
 73
     3
  0
TEXT
  5
3C4
  8
DATA
 62
     7
 10
236.14237485544689
 20
321.73153382145671
 30
0.0
 40
2.8097509765624999
  1
SPDIF
 50
180.0
 41
0.7
 11
236.14237485544689
 21
318.92178284489421
 31
0.0
 73
     3
  0
TEXT
  5
3C5
  8
DATA
 62
     7
 10
221.22866024069461
 20
307.37387085949501
 30
0.0
 40
2.8097509765624999
  1
OPT
 50
180.0
 41
0.7
 11
221.22866024069461
 21
304.56411988293252
 31
0.0
 73
     3
  0
LINE
  5
3C6
  8
DATA
  6
CONTINUOUS
 62
     7
 10
343.75
 20
179.0
 30
0.0
 11
429.75
 21
179.0
 31
0.0
  0
LINE
  5
3C7
  8
DATA
  6
CONTINUOUS
 62
     7
 10
343.75
 20
150.0
 30
0.0
 11
429.75
 21
150.0
 31
0.0
  0
LINE
  5
3C8
  8
DATA
  6
CONTINUOUS
 62
     7
 10
343.75
 20
150.0
 30
0.0
 11
343.75
 21
179.0
 31
0.0
  0
LINE
  5
3C9
  8
DATA
  6
CONTINUOUS
 62
     7
 10
429.75
 20
150.0
 30
0.0
 11
429.75
 21
179.0
 31
0.0
  0
LINE
  5
3CA
  8
DATA
  6
CONTINUOUS
 62
     7
 10
351.82801125627373
 20
148.0
 30
0.0
 11
353.02801125627371
 21
150.0
 31
0.0
  0
LINE
  5
3CB
  8
DATA
  6
CONTINUOUS
 62
     7
 10
346.82801125627373
 20
148.0
 30
0.0
 11
345.62801125627368
 21
150.0
 31
0.0
  0
LINE
  5
3CC
  8
DATA
  6
CONTINUOUS
 62
     7
 10
351.82801125627373
 20
148.0
 30
0.0
 11
346.82801125627373
 21
148.0
 31
0.0
  0
LINE
  5
3CD
  8
DATA
  6
CONTINUOUS
 62
     7
 10
421.67198874372627
 20
148.0
 30
0.0
 11
420.47198874372629
 21
150.0
 31
0.0
  0
LINE
  5
3CE
  8
DATA
  6
CONTINUOUS
 62
     7
 10
426.67198874372627
 20
148.0
 30
0.0
 11
427.87198874372632
 21
150.0
 31
0.0
  0
LINE
  5
3CF
  8
DATA
  6
CONTINUOUS
 62
     7
 10
421.67198874372627
 20
148.0
 30
0.0
 11
426.67198874372627
 21
148.0
 31
0.0
  0
LINE
  5
3D0
  8
DATA
  6
CONTINUOUS
 62
     7
 10
343.25
 20
436.49667786273488
 30
0.0
 11
343.75
 21
436.49667786273488
 31
0.0
  0
LINE
  5
3D1
  8
DATA
  6
CONTINUOUS
 62
     7
 10
343.25
 20
423.19667786273487
 30
0.0
 11
343.75
 21
423.19667786273487
 31
0.0
  0
LINE
  5
3D2
  8
DATA
  6
CONTINUOUS
 62
     7
 10
343.25
 20
423.19667786273487
 30
0.0
 11
343.25
 21
436.49667786273488
 31
0.0
  0
LINE
  5
3D3
  8
DATA
  6
CONTINUOUS
 62
     7
 10
343.25
 20
173.99667786273491
 30
0.0
 11
343.75
 21
173.99667786273491
 31
0.0
  0
LINE
  5
3D4
  8
DATA
  6
CONTINUOUS
 62
     7
 10
343.25
 20
160.6966778627349
 30
0.0
 11
343.75
 21
160.6966778627349
 31
0.0
  0
LINE
  5
3D5
  8
DATA
  6
CONTINUOUS
 62
     7
 10
343.25
 20
160.6966778627349
 30
0.0
 11
343.25
 21
173.99667786273491
 31
0.0
  0
LINE
  5
3D6
  8
DATA
  6
CONTINUOUS
 62
     7
 10
434.75
 20
163.66930299864549
 30
0.0
 11
429.75
 21
163.66930299864549
 31
0.0
  0
LINE
  5
3D7
  8
DATA
  6
CONTINUOUS
 62
     7
 10
434.75
 20
162.26930299864549
 30
0.0
 11
429.75
 21
162.26930299864549
 31
0.0
  0
LINE
  5
3D8
  8
DATA
  6
CONTINUOUS
 62
     7
 10
434.75
 20
163.80353134999879
 30
0.0
 11
434.75
 21
162.26930299864549
 31
0.0
  0
LINE
  5
3D9
  8
DATA
  6
CONTINUOUS
 62
     7
 10
437.24999999969998
 20
172.203531349999
 30
0.0
 11
429.74999999969998
 21
172.203531349999
 31
0.0
  0
LINE
  5
3DA
  8
DATA
  6
CONTINUOUS
 62
     7
 10
437.24999999969998
 20
163.80353134999879
 30
0.0
 11
429.74999999969998
 21
163.80353134999879
 31
0.0
  0
LINE
  5
3DB
  8
DATA
  6
CONTINUOUS
 62
     7
 10
437.24999999969998
 20
172.203531349999
 30
0.0
 11
437.24999999969998
 21
163.80353134999879
 31
0.0
  0
LINE
  5
3DC
  8
DATA
  6
CONTINUOUS
 62
     7
 10
434.75
 20
426.214978576269
 30
0.0
 11
429.75
 21
426.214978576269
 31
0.0
  0
LINE
  5
3DD
  8
DATA
  6
CONTINUOUS
 62
     7
 10
429.75
 20
431.41497857626888
 30
0.0
 11
434.75
 21
431.41497857626888
 31
0.0
  0
LINE
  5
3DE
  8
DATA
  6
CONTINUOUS
 62
     7
 10
434.75
 20
424.81497857626891
 30
0.0
 11
429.75
 21
424.81497857626891
 31
0.0
  0
LINE
  5
3DF
  8
DATA
  6
CONTINUOUS
 62
     7
 10
429.75
 20
432.81497857626891
 30
0.0
 11
434.75
 21
432.81497857626891
 31
0.0
  0
LINE
  5
3E0
  8
DATA
  6
CONTINUOUS
 62
     7
 10
434.75
 20
432.81497857626891
 30
0.0
 11
434.75
 21
424.81497857626891
 31
0.0
  0
LINE
  5
3E1
  8
DATA
  6
CONTINUOUS
 62
     7
 10
279.5
 20
456.25
 30
0.0
 11
279.5
 21
542.25
 31
0.0
  0
LINE
  5
3E2
  8
DATA
  6
CONTINUOUS
 62
     7
 10
279.5
 20
193.75
 30
0.0
 11
279.5
 21
279.75
 31
0.0
  0
ENDSEC
  0
EOF
