  0
SECTION
  2
HEADER
  9
$ACADVER
  1
AC1009
  9
$INSBASE
 10
0.0
 20
0.0
 30
0.0
  9
$EXTMIN
 10
-80.010985489947416
 20
-131.63053115337669
 30
-0.0015258207003583
  9
$EXTMAX
 10
280.01098716632811
 20
403.53457440790811
 30
0.0000000349246037
  9
$LIMMIN
 10
0.0
 20
0.0
  9
$LIMMAX
 10
0.0
 20
0.0
  9
$ORTHOMODE
 70
     0
  9
$REGENMODE
 70
     1
  9
$FILLMODE
 70
     1
  9
$QTEXTMODE
 70
     0
  9
$MIRRTEXT
 70
     1
  9
$DRAGMODE
 70
     2
  9
$LTSCALE
 40
10.16
  9
$OSMODE
 70
   231
  9
$ATTMODE
 70
     1
  9
$TEXTSIZE
 40
0.0
  9
$TRACEWID
 40
1.0
  9
$TEXTSTYLE
  7
STANDARD
  9
$CLAYER
  8
DATA
  9
$CELTYPE
  6
BYLAYER
  9
$CECOLOR
 62
   256
  9
$DIMSCALE
 40
1.0
  9
$DIMASZ
 40
0.18
  9
$DIMEXO
 40
0.0625
  9
$DIMDLI
 40
0.38
  9
$DIMRND
 40
0.0
  9
$DIMDLE
 40
0.0
  9
$DIMEXE
 40
0.18
  9
$DIMTP
 40
0.0
  9
$DIMTM
 40
0.0
  9
$DIMTXT
 40
0.18
  9
$DIMCEN
 40
0.09
  9
$DIMTSZ
 40
0.0
  9
$DIMTOL
 70
     0
  9
$DIMLIM
 70
     0
  9
$DIMTIH
 70
     1
  9
$DIMTOH
 70
     1
  9
$DIMSE1
 70
     0
  9
$DIMSE2
 70
     0
  9
$DIMTAD
 70
     0
  9
$DIMZIN
 70
     0
  9
$DIMBLK
  1

  9
$DIMASO
 70
     1
  9
$DIMSHO
 70
     1
  9
$DIMPOST
  1

  9
$DIMAPOST
  1

  9
$DIMALT
 70
     0
  9
$DIMALTD
 70
     2
  9
$DIMALTF
 40
25.399999999999999
  9
$DIMLFAC
 40
1.0
  9
$DIMTOFL
 70
     0
  9
$DIMTVP
 40
0.0
  9
$DIMTIX
 70
     0
  9
$DIMSOXD
 70
     0
  9
$DIMSAH
 70
     0
  9
$DIMBLK1
  1

  9
$DIMBLK2
  1

  9
$DIMSTYLE
  2
STANDARD
  9
$DIMCLRD
 70
     0
  9
$DIMCLRE
 70
     0
  9
$DIMCLRT
 70
     0
  9
$DIMTFAC
 40
1.0
  9
$DIMGAP
 40
0.09
  9
$LUNITS
 70
     2
  9
$LUPREC
 70
     4
  9
$SKETCHINC
 40
0.1
  9
$FILLETRAD
 40
0.0
  9
$AUNITS
 70
     0
  9
$AUPREC
 70
     0
  9
$MENU
  1
acad
  9
$ELEVATION
 40
0.0
  9
$PELEVATION
 40
0.0
  9
$THICKNESS
 40
0.0
  9
$LIMCHECK
 70
     0
  9
$BLIPMODE
 70
     0
  9
$CHAMFERA
 40
0.0
  9
$CHAMFERB
 40
0.0
  9
$SKPOLY
 70
     0
  9
$TDCREATE
 40
2455202.6927546291
  9
$TDUPDATE
 40
2455202.6954440158
  9
$TDINDWG
 40
0.0003172454
  9
$TDUSRTIMER
 40
0.0003172454
  9
$USRTIMER
 70
     1
  9
$ANGBASE
 50
0.0
  9
$ANGDIR
 70
     0
  9
$PDMODE
 70
     1
  9
$PDSIZE
 40
-2.0
  9
$PLINEWID
 40
0.0
  9
$COORDS
 70
     0
  9
$SPLFRAME
 70
     0
  9
$SPLINETYPE
 70
     6
  9
$SPLINESEGS
 70
     8
  9
$ATTDIA
 70
     0
  9
$ATTREQ
 70
     1
  9
$HANDLING
 70
     1
  9
$HANDSEED
  5
4FB
  9
$SURFTAB1
 70
     6
  9
$SURFTAB2
 70
     6
  9
$SURFTYPE
 70
     6
  9
$SURFU
 70
     6
  9
$SURFV
 70
     6
  9
$UCSNAME
  2

  9
$UCSORG
 10
0.0
 20
0.0
 30
0.0
  9
$UCSXDIR
 10
1.0
 20
0.0
 30
0.0
  9
$UCSYDIR
 10
0.0
 20
1.0
 30
0.0
  9
$PUCSNAME
  2

  9
$PUCSORG
 10
0.0
 20
0.0
 30
0.0
  9
$PUCSXDIR
 10
1.0
 20
0.0
 30
0.0
  9
$PUCSYDIR
 10
0.0
 20
1.0
 30
0.0
  9
$USERI1
 70
     0
  9
$USERI2
 70
     0
  9
$USERI3
 70
     0
  9
$USERI4
 70
     0
  9
$USERI5
 70
     0
  9
$USERR1
 40
0.0
  9
$USERR2
 40
0.0
  9
$USERR3
 40
0.0
  9
$USERR4
 40
0.0
  9
$USERR5
 40
0.0
  9
$WORLDVIEW
 70
     1
  9
$SHADEDGE
 70
     3
  9
$SHADEDIF
 70
    70
  9
$TILEMODE
 70
     1
  9
$MAXACTVP
 70
    64
  9
$PLIMCHECK
 70
     0
  9
$PEXTMIN
 10
1.0000000000000000E+020
 20
1.0000000000000000E+020
 30
1.0000000000000000E+020
  9
$PEXTMAX
 10
-1.0000000000000000E+020
 20
-1.0000000000000000E+020
 30
-1.0000000000000000E+020
  9
$PLIMMIN
 10
0.0
 20
0.0
  9
$PLIMMAX
 10
12.0
 20
9.0
  9
$UNITMODE
 70
     0
  9
$VISRETAIN
 70
     0
  9
$PLINEGEN
 70
     1
  9
$PSLTSCALE
 70
     0
  0
ENDSEC
  0
SECTION
  2
TABLES
  0
TABLE
  2
VPORT
 70
     1
  0
VPORT
  2
*ACTIVE
 70
     0
 10
0.0
 20
0.0
 11
1.0
 21
1.0
 12
100.0000008381904
 22
135.95202162726571
 13
0.0
 23
0.0
 14
1.0
 24
1.0
 15
0.0
 25
0.0
 16
0.0
 26
0.0
 36
1.0
 17
0.0
 27
0.0
 37
0.0
 40
539.10981149908309
 41
1.964329643296433
 42
50.0
 43
0.0
 44
0.0
 50
0.0
 51
0.0
 71
     0
 72
  2000
 73
     1
 74
     1
 75
     0
 76
     0
 77
     0
 78
     0
  0
ENDTAB
  0
TABLE
  2
LTYPE
 70
    11
  0
LTYPE
  2
CONTINUOUS
 70
     0
  3
Solid line
 72
    65
 73
     0
 40
0.0
  0
ENDTAB
  0
TABLE
  2
LAYER
 70
     5
  0
LAYER
  2
0
 70
     0
 62
     7
  6
CONTINUOUS
  0
LAYER
  2
DATA
 70
     0
 62
     7
  6
CONTINUOUS
  0
LAYER
  2
HIBINO-BASE
 70
     0
 62
     7
  6
CONTINUOUS
  0
LAYER
  2
SPEC
 70
     0
 62
     7
  6
CONTINUOUS
  0
LAYER
  2
DIMNSIONS
 70
     0
 62
     7
  6
CONTINUOUS
  0
ENDTAB
  0
TABLE
  2
STYLE
 70
     3
  0
STYLE
  2
STANDARD
 70
     0
 40
0.0
 41
1.0
 50
0.0
 71
     0
 42
0.0
  3
txt
  4
BIGFONT.SHX
  0
ENDTAB
  0
TABLE
  2
VIEW
 70
     0
  0
ENDTAB
  0
TABLE
  2
UCS
 70
     0
  0
ENDTAB
  0
TABLE
  2
APPID
 70
     3
  0
APPID
  2
ACAD
 70
     0
  0
APPID
  2
ACADANNOTATIVE
 70
     0
  0
APPID
  2
ACAD_MLEADERVER
 70
     0
  0
ENDTAB
  0
TABLE
  2
DIMSTYLE
 70
     2
  0
DIMSTYLE
  2
STANDARD
 70
     0
  3

  4

  5

  6

  7

 40
1.0
 41
0.18
 42
0.0625
 43
0.38
 44
0.18
 45
0.0
 46
0.0
 47
0.0
 48
0.0
140
0.18
141
0.09
142
0.0
143
25.399999999999999
144
1.0
145
0.0
146
1.0
147
0.09
 71
     0
 72
     0
 73
     1
 74
     1
 75
     0
 76
     0
 77
     0
 78
     0
170
     0
171
     2
172
     0
173
     0
174
     0
175
     0
176
     0
177
     0
178
     0
  0
ENDTAB
  0
ENDSEC
  0
SECTION
  2
BLOCKS
  0
BLOCK
  8
0
  2
$MODEL_SPACE
 70
     0
 10
0.0
 20
0.0
 30
0.0
  3
$MODEL_SPACE
  1

  0
ENDBLK
  5
3CC
  8
0
  0
BLOCK
 67
     1
  8
0
  2
$PAPER_SPACE
 70
     0
 10
0.0
 20
0.0
 30
0.0
  3
$PAPER_SPACE
  1

  0
ENDBLK
  5
3C8
 67
     1
  8
0
  0
ENDSEC
  0
SECTION
  2
ENTITIES
  0
LINE
  5
2C
  8
HIBINO-BASE
  6
CONTINUOUS
 62
     7
 10
-79.999999999999986
 20
403.51827454690522
 30
0.0
 11
279.99999999999989
 21
403.51827454690522
 31
0.0
  0
LINE
  5
2D
  8
HIBINO-BASE
  6
CONTINUOUS
 62
     7
 10
279.99999999999989
 20
-116.4817254530948
 30
0.0
 11
-79.999999999999986
 21
-116.4817254530948
 31
0.0
  0
LINE
  5
2E
  8
HIBINO-BASE
  6
CONTINUOUS
 62
     7
 10
-79.999999999999986
 20
-116.4817254530948
 30
0.0
 11
-79.999999999999986
 21
403.51827454690522
 31
0.0
  0
LINE
  5
2F
  8
HIBINO-BASE
  6
CONTINUOUS
 62
     7
 10
279.99999999999989
 20
403.51827454690522
 30
0.0
 11
279.99999999999989
 21
-116.4817254530948
 31
0.0
  0
LINE
  5
30
  8
HIBINO-BASE
  6
CONTINUOUS
 62
     7
 10
100.0
 20
-71.481725453094782
 30
0.0
 11
279.99999999999989
 21
-71.481725453094782
 31
0.0
  0
LINE
  5
31
  8
HIBINO-BASE
  6
CONTINUOUS
 62
     7
 10
100.0
 20
-116.4817254530948
 30
0.0
 11
100.0
 21
-71.481725453094782
 31
0.0
  0
TEXT
  5
32
  8
HIBINO-BASE
 62
     7
 10
101.8
 20
-76.499112119761492
 30
0.0
 40
3.2576822916666659
  1
NOTE
 41
0.7
 11
101.8
 21
-73.241429828094823
 31
0.0
 73
     3
  0
LINE
  5
33
  8
HIBINO-BASE
  6
CONTINUOUS
 62
     7
 10
170.0
 20
-116.4817254530948
 30
0.0
 11
170.0
 21
-71.481725453094782
 31
0.0
  0
TEXT
  5
34
  8
HIBINO-BASE
 62
     7
 10
171.7999999999999
 20
-76.499112119761492
 30
0.0
 40
3.2576822916666659
  1
TITLE
 41
0.7
 11
171.7999999999999
 21
-73.241429828094823
 31
0.0
 73
     3
  0
LINE
  5
35
  8
HIBINO-BASE
  6
CONTINUOUS
 62
     7
 10
100.0
 20
-96.481725453094782
 30
0.0
 11
279.99999999999989
 21
-96.481725453094782
 31
0.0
  0
TEXT
  5
36
  8
HIBINO-BASE
 62
     7
 10
196.80000000000001
 20
-101.38647211976151
 30
0.0
 40
3.2576822916666659
  1
DRAWN
 41
0.7
 11
196.80000000000001
 21
-98.12878982809481
 31
0.0
 73
     3
  0
TEXT
  5
37
  8
HIBINO-BASE
 62
     7
 10
146.7999999999999
 20
-101.38647211976151
 30
0.0
 40
3.2576822916666659
  1
DATE
 41
0.7
 11
146.7999999999999
 21
-98.12878982809481
 31
0.0
 73
     3
  0
TEXT
  5
38
  8
HIBINO-BASE
 62
     7
 10
126.8
 20
-101.38647211976151
 30
0.0
 40
3.2576822916666659
  1
SCALE
 41
0.7
 11
126.8
 21
-98.12878982809481
 31
0.0
 73
     3
  0
TEXT
  5
39
  8
HIBINO-BASE
 62
     7
 10
171.7999999999999
 20
-101.38647211976151
 30
0.0
 40
3.2576822916666659
  1
DESIGN
 41
0.7
 11
171.7999999999999
 21
-98.12878982809481
 31
0.0
 73
     3
  0
TEXT
  5
3A
  8
HIBINO-BASE
 62
     7
 10
246.7999999999999
 20
-101.38647211976151
 30
0.0
 40
3.2576822916666659
  1
DRAWING NO.
 41
0.7
 11
246.7999999999999
 21
-98.12878982809481
 31
0.0
 73
     3
  0
TEXT
  5
3B
  8
HIBINO-BASE
 62
     7
 10
221.7999999999999
 20
-101.38647211976151
 30
0.0
 40
3.2576822916666659
  1
CHECK
 41
0.7
 11
221.7999999999999
 21
-98.12878982809481
 31
0.0
 73
     3
  0
LINE
  5
3C
  8
HIBINO-BASE
  6
CONTINUOUS
 62
     7
 10
128.74999999999989
 20
-113.9817254530948
 30
0.0
 11
136.25
 21
-106.4817254530947
 31
0.0
  0
TEXT
  5
3D
  8
HIBINO-BASE
 62
     7
 10
127.5
 20
-108.6996121197614
 30
0.0
 40
3.2576822916666659
  1
1
 41
0.7
 11
127.5
 21
-105.4419298280948
 31
0.0
 73
     3
  0
LINE
  5
3E
  8
HIBINO-BASE
  6
CONTINUOUS
 62
     7
 10
125.0
 20
-116.4817254530948
 30
0.0
 11
125.0
 21
-96.481725453094782
 31
0.0
  0
LINE
  5
3F
  8
HIBINO-BASE
  6
CONTINUOUS
 62
     7
 10
145.0
 20
-116.4817254530948
 30
0.0
 11
145.0
 21
-96.481725453094782
 31
0.0
  0
LINE
  5
40
  8
HIBINO-BASE
  6
CONTINUOUS
 62
     7
 10
195.0
 20
-96.481725453094782
 30
0.0
 11
195.0
 21
-116.4817254530948
 31
0.0
  0
LINE
  5
41
  8
HIBINO-BASE
  6
CONTINUOUS
 62
     7
 10
245.0
 20
-96.481725453094782
 30
0.0
 11
245.0
 21
-116.4817254530948
 31
0.0
  0
LINE
  5
42
  8
HIBINO-BASE
  6
CONTINUOUS
 62
     7
 10
220.0
 20
-116.4817254530948
 30
0.0
 11
220.0
 21
-96.481725453094782
 31
0.0
  0
TEXT
  5
43
  8
HIBINO-BASE
 62
     7
 10
146.71307999999999
 20
-110.7544321197614
 30
0.0
 40
3.2576822916666659
  1
'09.09.
 41
0.7
 11
146.71307999999999
 21
-107.49674982809481
 31
0.0
 73
     3
  0
TEXT
  5
44
  8
HIBINO-BASE
 62
     7
 10
135.0
 20
-112.4496121197614
 30
0.0
 40
3.2576822916666659
  1
2
 41
0.7
 11
135.0
 21
-109.1919298280948
 31
0.0
 73
     3
  0
TEXT
  5
45
  8
HIBINO-BASE
 62
     7
 10
107.76666666666659
 20
-112.5297254530948
 30
0.0
 40
6.5153645833333318
  1
A4
 41
0.7
 11
107.76666666666659
 21
-106.0143608697615
 31
0.0
 73
     3
  0
TEXT
  5
46
  8
HIBINO-BASE
 62
     7
 10
101.9166666666666
 20
-101.7206354530948
 30
0.0
 40
3.2576822916666659
  1
PAPER SIZE
 41
0.7
 11
101.9166666666666
 21
-98.462953161428146
 31
0.0
 73
     3
  0
TEXT
  5
47
  8
HIBINO-BASE
 62
     7
 10
-74.171578506403733
 20
-129.27071252960431
 30
0.0
 40
7.0583116319444441
  1
Hibino-Intersound Corporation
 41
0.7
 11
-74.171578506403733
 21
-122.2124008976599
 31
0.0
 73
     3
  0
TEXT
  5
48
  8
HIBINO-BASE
 62
     7
 10
141.2919332079756
 20
-128.65003452868569
 30
0.0
 40
7.0583116319444441
  1
ヒビノインターサウンド株式会社
 41
0.7
 11
141.2919332079756
 21
-121.5917228967413
 31
0.0
 73
     3
  0
TEXT
  5
49
  8
HIBINO-BASE
 62
     7
 10
197.2528452664134
 20
-110.6624137825101
 30
0.0
 40
3.2576822916666659
  1
T.Ootake
 41
0.7
 11
197.2528452664134
 21
-107.4047314908435
 31
0.0
 73
     3
  0
TEXT
  5
4A
  8
SPEC
 62
     7
 10
-62.5
 20
386.30481454690522
 30
0.0
 40
4.8865234375000002
  1
仕様
 41
0.7
 11
-62.5
 21
391.19133798440521
 31
0.0
 73
     3
  0
LINE
  5
4B
  8
SPEC
  6
CONTINUOUS
 62
     7
 10
-64.999999999744617
 20
383.5182745466343
 30
0.0
 11
230.0000000002554
 21
383.5182745466343
 31
0.0
  0
LINE
  5
4C
  8
SPEC
  6
CONTINUOUS
 62
     7
 10
-64.999999999744617
 20
376.01827454663459
 30
0.0
 11
230.0000000002554
 21
376.01827454663459
 31
0.0
  0
LINE
  5
4D
  8
SPEC
  6
CONTINUOUS
 62
     7
 10
-64.999999999744617
 20
346.01827454663493
 30
0.0
 11
230.0000000002554
 21
346.01827454663493
 31
0.0
  0
LINE
  5
4E
  8
SPEC
  6
CONTINUOUS
 62
     7
 10
-64.999999999744617
 20
353.51827454663493
 30
0.0
 11
230.0000000002554
 21
353.51827454663493
 31
0.0
  0
LINE
  5
4F
  8
SPEC
  6
CONTINUOUS
 62
     7
 10
-64.999999999744617
 20
361.01827454663493
 30
0.0
 11
230.0000000002554
 21
361.01827454663493
 31
0.0
  0
LINE
  5
50
  8
SPEC
  6
CONTINUOUS
 62
     7
 10
230.0000000002554
 20
338.51827454663493
 30
0.0
 11
-64.999999999744617
 21
338.51827454663493
 31
0.0
  0
LINE
  5
51
  8
SPEC
  6
CONTINUOUS
 62
     7
 10
-64.999999999744617
 20
368.51827454663493
 30
0.0
 11
230.0000000002554
 21
368.51827454663493
 31
0.0
  0
LINE
  5
52
  8
SPEC
  6
CONTINUOUS
 62
     7
 10
-64.999999999744617
 20
383.5182745466343
 30
0.0
 11
-64.999999999744617
 21
278.51827454663493
 31
0.0
  0
LINE
  5
53
  8
SPEC
  6
CONTINUOUS
 62
     7
 10
0.0000000002553833
 20
383.5182745466343
 30
0.0
 11
0.0000000002553833
 21
338.51827454663493
 31
0.0
  0
LINE
  5
54
  8
SPEC
  6
CONTINUOUS
 62
     7
 10
230.0000000002554
 20
383.5182745466343
 30
0.0
 11
230.0000000002554
 21
278.51827454663493
 31
0.0
  0
TEXT
  5
55
  8
SPEC
 62
     7
 10
-63.33496906849264
 20
377.97916544726922
 30
0.0
 40
3.8006224999999989
  1
形式
 41
0.7
 11
-63.33496906849264
 21
381.7797879472692
 31
0.0
 73
     3
  0
LINE
  5
56
  8
SPEC
  6
CONTINUOUS
 62
     7
 10
0.0000000002553833
 20
383.5182745466343
 30
0.0
 11
0.0000000002553833
 21
278.51827454663493
 31
0.0
  0
TEXT
  5
57
  8
SPEC
 62
     7
 10
-63.394094234064838
 20
288.18134493378079
 30
0.0
 40
3.8006293402777769
  1
寸法
 41
0.7
 11
-63.394094234064838
 21
291.98197427405859
 31
0.0
 73
     3
  0
TEXT
  5
58
  8
SPEC
 62
     7
 10
-63.336370276477567
 20
280.72247016003308
 30
0.0
 40
3.8006293402777769
  1
重量
 41
0.7
 11
-63.336370276477567
 21
284.52309950031088
 31
0.0
 73
     3
  0
TEXT
  5
59
  8
SPEC
 62
     7
 10
-63.380207857729332
 20
303.19040357344358
 30
0.0
 40
3.8006293402777769
  1
電源
 41
0.7
 11
-63.380207857729332
 21
306.99103291372143
 31
0.0
 73
     3
  0
TEXT
  5
5A
  8
SPEC
 62
     7
 10
1.7881263496257549
 20
302.97717253764358
 30
0.0
 40
3.8006293402777769
  1
5V DC
 41
0.7
 11
1.7881263496257549
 21
306.77780187792138
 31
0.0
 73
     3
  0
TEXT
  5
5B
  8
SPEC
 62
     7
 10
1.8081363851755861
 20
287.997656971906
 30
0.0
 40
3.8006293402777769
  1
35(W)\U+00D724(H)\U+00D793(D)mm(突起部含まず)、(センダー、レシバー共に)
 41
0.7
 11
1.8081363851755861
 21
291.7982863121839
 31
0.0
 73
     3
  0
TEXT
  5
5C
  8
SPEC
 62
     7
 10
1.729514413442657
 20
280.67669060459889
 30
0.0
 40
3.8006293402777769
  1
約80g(センダー、レシバー共に)
 41
0.7
 11
1.7295144134426581
 21
284.47731994487668
 31
0.0
 73
     3
  0
TEXT
  5
5D
  8
SPEC
 62
     7
 10
1.9196386896340549
 20
377.96721080596268
 30
0.0
 40
3.8006293402777769
  1
VGA延長機
 41
0.7
 11
1.9196386896340549
 21
381.76784014624047
 31
0.0
 73
     3
  0
TEXT
  5
5E
  8
SPEC
 62
     7
 10
-63.30913393784131
 20
370.4482254482956
 30
0.0
 40
3.8006224999999989
  1
入力ビデオ帯域
 41
0.7
 11
-63.30913393784131
 21
374.24884794829558
 31
0.0
 73
     3
  0
TEXT
  5
5F
  8
SPEC
 62
     7
 10
1.802767333703144
 20
370.28101092184488
 30
0.0
 40
3.8006293402777769
  1
350MHz
 41
0.7
 11
1.802767333703144
 21
374.08164026212279
 31
0.0
 73
     3
  0
TEXT
  5
60
  8
SPEC
 62
     7
 10
-63.307205807706708
 20
363.0155809915845
 30
0.0
 40
3.8006224999999989
  1
実動作帯域
 41
0.7
 11
-63.307205807706708
 21
366.81620349158447
 31
0.0
 73
     3
  0
TEXT
  5
61
  8
SPEC
 62
     7
 10
1.528437664345389
 20
362.89576622677072
 30
0.0
 40
3.8006293402777769
  1
120MHz
 41
0.7
 11
1.528437664345389
 21
366.69639556704851
 31
0.0
 73
     3
  0
LINE
  5
62
  8
SPEC
  6
CONTINUOUS
 62
     7
 10
230.0000000002554
 20
331.01827454663493
 30
0.0
 11
-64.999999999744617
 21
331.01827454663493
 31
0.0
  0
LINE
  5
63
  8
SPEC
  6
CONTINUOUS
 62
     7
 10
230.0000000002554
 20
323.51827454663493
 30
0.0
 11
-64.999999999744617
 21
323.51827454663493
 31
0.0
  0
LINE
  5
64
  8
SPEC
  6
CONTINUOUS
 62
     7
 10
230.0000000002554
 20
316.01827454663493
 30
0.0
 11
-64.999999999744617
 21
316.01827454663493
 31
0.0
  0
LINE
  5
65
  8
SPEC
  6
CONTINUOUS
 62
     7
 10
230.0000000002554
 20
308.51827454663493
 30
0.0
 11
-64.999999999744617
 21
308.51827454663493
 31
0.0
  0
LINE
  5
66
  8
SPEC
  6
CONTINUOUS
 62
     7
 10
230.0000000002554
 20
301.01827454663493
 30
0.0
 11
-64.999999999744617
 21
301.01827454663493
 31
0.0
  0
TEXT
  5
67
  8
SPEC
 62
     7
 10
-63.307950206972372
 20
355.50882671140261
 30
0.0
 40
3.8006224999999989
  1
入力ビデオ信号
 41
0.7
 11
-63.307950206972372
 21
359.30944921140252
 31
0.0
 73
     3
  0
TEXT
  5
68
  8
SPEC
 62
     7
 10
1.528993527474469
 20
355.32585193373541
 30
0.0
 40
3.8006293402777769
  1
1.2V p-p
 41
0.7
 11
1.528993527474469
 21
359.1264812740132
 31
0.0
 73
     3
  0
TEXT
  5
69
  8
SPEC
 62
     7
 10
-63.297772780122969
 20
347.89373992982757
 30
0.0
 40
3.8006224999999989
  1
入力DDC信号
 41
0.7
 11
-63.297772780122969
 21
351.69436242982761
 31
0.0
 73
     3
  0
TEXT
  5
6A
  8
SPEC
 62
     7
 10
1.8076256727294859
 20
347.7280970719886
 30
0.0
 40
3.8006293402777769
  1
5V p-p(TTL)
 41
0.7
 11
1.8076256727294859
 21
351.52872641226639
 31
0.0
 73
     3
  0
TEXT
  5
6B
  8
SPEC
 62
     7
 10
-63.366173572562573
 20
340.48012292714208
 30
0.0
 40
3.8006224999999989
  1
対応水平同期周波数
 41
0.7
 11
-63.366173572562573
 21
344.28074542714211
 31
0.0
 73
     3
  0
TEXT
  5
6C
  8
SPEC
 62
     7
 10
1.530623025756866
 20
340.2555291537621
 30
0.0
 40
3.8006293402777769
  1
15～70kHz
 41
0.7
 11
1.5306230257568669
 21
344.05615849403989
 31
0.0
 73
     3
  0
TEXT
  5
6D
  8
SPEC
 62
     7
 10
-63.050633027142069
 20
325.5946671674912
 30
0.0
 40
3.8006224999999989
  1
VGA入力端子
 41
0.7
 11
-63.050633027142069
 21
329.39528966749123
 31
0.0
 73
     3
  0
TEXT
  5
6E
  8
SPEC
 62
     7
 10
1.7894912007138111
 20
325.27831588851689
 30
0.0
 40
3.8006293402777769
  1
HD-15オス
 41
0.7
 11
1.7894912007138111
 21
329.07894522879462
 31
0.0
 73
     3
  0
TEXT
  5
6F
  8
SPEC
 62
     7
 10
-63.34948498537689
 20
333.08830861518828
 30
0.0
 40
3.8006224999999989
  1
対応垂直同期周波数
 41
0.7
 11
-63.34948498537689
 21
336.88893111518831
 31
0.0
 73
     3
  0
TEXT
  5
70
  8
SPEC
 62
     7
 10
1.780168737623526
 20
332.77866491715258
 30
0.0
 40
3.8006293402777769
  1
30～170Hz
 41
0.7
 11
1.780168737623526
 21
336.57929425743038
 31
0.0
 73
     3
  0
TEXT
  5
71
  8
SPEC
 62
     7
 10
-63.051263627272711
 20
318.06596359639531
 30
0.0
 40
3.8006224999999989
  1
VGA出力端子
 41
0.7
 11
-63.051263627272711
 21
321.86658609639528
 31
0.0
 73
     3
  0
TEXT
  5
72
  8
SPEC
 62
     7
 10
1.8049023943215581
 20
317.88834865351538
 30
0.0
 40
3.8006293402777769
  1
HD-15オス
 41
0.7
 11
1.8049023943215581
 21
321.68897799379317
 31
0.0
 73
     3
  0
TEXT
  5
73
  8
SPEC
 62
     7
 10
-63.318217103709252
 20
310.69883345213611
 30
0.0
 40
3.8006224999999989
  1
延長用コネクター
 41
0.7
 11
-63.318217103709252
 21
314.49945595213609
 31
0.0
 73
     3
  0
TEXT
  5
74
  8
SPEC
 62
     7
 10
1.7714855891443191
 20
310.33268051709121
 30
0.0
 40
3.8006293402777769
  1
RJ-45
 41
0.7
 11
1.7714855891443191
 21
314.133309857369
 31
0.0
 73
     3
  0
TEXT
  5
75
  8
SPEC
 62
     7
 10
-63.304198279966343
 20
295.52011412476583
 30
0.0
 40
3.8006293402777769
  1
消費電力
 41
0.7
 11
-63.304198279966343
 21
299.32074346504362
 31
0.0
 73
     3
  0
TEXT
  5
76
  8
SPEC
 62
     7
 10
1.806551876085037
 20
295.47769197278831
 30
0.0
 40
3.8006293402777769
  1
5W(最大)
 41
0.7
 11
1.8065518760850381
 21
299.27832131306599
 31
0.0
 73
     3
  0
LINE
  5
77
  8
SPEC
  6
CONTINUOUS
 62
     7
 10
230.0000000002554
 20
293.51827454663493
 30
0.0
 11
-64.999999999744617
 21
293.51827454663493
 31
0.0
  0
LINE
  5
78
  8
SPEC
  6
CONTINUOUS
 62
     7
 10
230.0000000002554
 20
286.01827454663493
 30
0.0
 11
-64.999999999744617
 21
286.01827454663493
 31
0.0
  0
LINE
  5
79
  8
SPEC
  6
CONTINUOUS
 62
     7
 10
230.0000000002554
 20
278.51827454663493
 30
0.0
 11
-64.999999999744617
 21
278.51827454663493
 31
0.0
  0
TEXT
  5
7A
  8
DIMNSIONS
 62
     7
 10
60.0
 20
-91.942745453094787
 30
0.0
 40
4.8865234375000002
  1
(単位：mm)
 41
0.7
 11
60.0
 21
-87.056222015594784
 31
0.0
 73
     3
  0
LINE
  5
7B
  8
DIMNSIONS
  6
CONTINUOUS
 62
     7
 10
-35.250000000319623
 20
118.74999999969739
 30
0.0
 11
-47.750000000100663
 21
118.74999999969739
 31
0.0
  0
LINE
  5
7C
  8
DIMNSIONS
  6
CONTINUOUS
 62
     7
 10
-35.250000000319623
 20
211.74999999969751
 30
0.0
 11
-47.750000000100663
 21
211.74999999969751
 31
0.0
  0
LINE
  5
7D
  8
DIMNSIONS
  6
CONTINUOUS
 62
     7
 10
-43.750000000100663
 20
118.74999999969739
 30
0.0
 11
-43.750000000100663
 21
211.74999999969751
 31
0.0
  0
LINE
  5
7E
  8
DIMNSIONS
  6
CONTINUOUS
 62
     7
 10
-43.750000000100663
 20
118.74999999969739
 30
0.0
 11
-45.090079590401139
 21
123.7512451168849
 31
0.0
  0
LINE
  5
7F
  8
DIMNSIONS
  6
CONTINUOUS
 62
     7
 10
-43.750000000100663
 20
118.74999999969739
 30
0.0
 11
-42.409920409800172
 21
123.7512451168849
 31
0.0
  0
LINE
  5
80
  8
DIMNSIONS
  6
CONTINUOUS
 62
     7
 10
-43.750000000100663
 20
211.74999999969751
 30
0.0
 11
-42.409920409800172
 21
206.74875488251001
 31
0.0
  0
LINE
  5
81
  8
DIMNSIONS
  6
CONTINUOUS
 62
     7
 10
-43.750000000100663
 20
211.74999999969751
 30
0.0
 11
-45.090079590401139
 21
206.74875488251001
 31
0.0
  0
TEXT
  5
82
  8
DIMNSIONS
 62
     7
 10
-45.737777777878406
 20
161.72222222191959
 30
0.0
 40
5.4294704861111107
  1
93
 50
90.0
 41
0.7
 11
-51.167248263989528
 21
161.72222222191959
 31
0.0
 73
     3
  0
LINE
  5
83
  8
DIMNSIONS
  6
CONTINUOUS
 62
     7
 10
-32.916465143380528
 20
114.74999999969739
 30
0.0
 11
-47.750000000100663
 21
114.74999999969739
 31
0.0
  0
LINE
  5
84
  8
DIMNSIONS
  6
CONTINUOUS
 62
     7
 10
-35.225866220139082
 20
118.74999999969739
 30
0.0
 11
-47.750000000100663
 21
118.74999999969739
 31
0.0
  0
LINE
  5
85
  8
DIMNSIONS
  6
CONTINUOUS
 62
     7
 10
-43.750000000100663
 20
118.74999999969739
 30
0.0
 11
-43.750000000100663
 21
114.74999999969739
 31
0.0
  0
LINE
  5
86
  8
DIMNSIONS
  6
CONTINUOUS
 62
     7
 10
-43.750000000100663
 20
114.74999999969739
 30
0.0
 11
-43.750000000100663
 21
105.2083333329532
 31
0.0
  0
LINE
  5
87
  8
DIMNSIONS
  6
CONTINUOUS
 62
     7
 10
-43.750000000100663
 20
114.74999999969739
 30
0.0
 11
-42.409920409800172
 21
109.7487548825099
 31
0.0
  0
LINE
  5
88
  8
DIMNSIONS
  6
CONTINUOUS
 62
     7
 10
-43.750000000100663
 20
114.74999999969739
 30
0.0
 11
-45.090079590401139
 21
109.7487548825099
 31
0.0
  0
LINE
  5
89
  8
DIMNSIONS
  6
CONTINUOUS
 62
     7
 10
-43.750000000100663
 20
118.74999999969739
 30
0.0
 11
-43.750000000100663
 21
128.74999999969739
 31
0.0
  0
LINE
  5
8A
  8
DIMNSIONS
  6
CONTINUOUS
 62
     7
 10
-43.750000000100663
 20
118.74999999969739
 30
0.0
 11
-45.090079590401139
 21
123.7512451168849
 31
0.0
  0
LINE
  5
8B
  8
DIMNSIONS
  6
CONTINUOUS
 62
     7
 10
-43.750000000100663
 20
118.74999999969739
 30
0.0
 11
-42.409920409800172
 21
123.7512451168849
 31
0.0
  0
TEXT
  5
8C
  8
DIMNSIONS
 62
     7
 10
-45.737777777878406
 20
105.2083333329532
 30
0.0
 40
5.4294704861111107
  1
4
 50
90.0
 41
0.7
 11
-51.167248263989528
 21
105.2083333329532
 31
0.0
 73
     3
  0
LINE
  5
8D
  8
DIMNSIONS
  6
CONTINUOUS
 62
     7
 10
-35.250000000319623
 20
74.999999999897895
 30
0.0
 11
-47.750000000100663
 21
74.999999999897895
 31
0.0
  0
LINE
  5
8E
  8
DIMNSIONS
  6
CONTINUOUS
 62
     7
 10
-33.750000000319623
 20
98.999999999897554
 30
0.0
 11
-47.750000000100663
 21
98.999999999897554
 31
0.0
  0
LINE
  5
8F
  8
DIMNSIONS
  6
CONTINUOUS
 62
     7
 10
-43.750000000100663
 20
74.999999999897895
 30
0.0
 11
-43.750000000100663
 21
98.999999999897554
 31
0.0
  0
LINE
  5
90
  8
DIMNSIONS
  6
CONTINUOUS
 62
     7
 10
-43.750000000100663
 20
74.999999999897895
 30
0.0
 11
-45.090079590401139
 21
80.001245117085389
 31
0.0
  0
LINE
  5
91
  8
DIMNSIONS
  6
CONTINUOUS
 62
     7
 10
-43.750000000100663
 20
74.999999999897895
 30
0.0
 11
-42.409920409800172
 21
80.001245117085389
 31
0.0
  0
LINE
  5
92
  8
DIMNSIONS
  6
CONTINUOUS
 62
     7
 10
-43.750000000100663
 20
98.999999999897554
 30
0.0
 11
-42.409920409800172
 21
93.998754882710045
 31
0.0
  0
LINE
  5
93
  8
DIMNSIONS
  6
CONTINUOUS
 62
     7
 10
-43.750000000100663
 20
98.999999999897554
 30
0.0
 11
-45.090079590401139
 21
93.998754882710045
 31
0.0
  0
TEXT
  5
94
  8
DIMNSIONS
 62
     7
 10
-45.737777777878406
 20
83.472222222119939
 30
0.0
 40
5.4294704861111107
  1
24
 50
90.0
 41
0.7
 11
-51.167248263989528
 21
83.472222222119939
 31
0.0
 73
     3
  0
LINE
  5
95
  8
DIMNSIONS
  6
CONTINUOUS
 62
     7
 10
-28.500000000100631
 20
73.000539557347096
 30
0.0
 11
-47.750000000100663
 21
73.000539557347096
 31
0.0
  0
LINE
  5
96
  8
DIMNSIONS
  6
CONTINUOUS
 62
     7
 10
-35.250000000319623
 20
74.999999999897895
 30
0.0
 11
-47.750000000100663
 21
74.999999999897895
 31
0.0
  0
LINE
  5
97
  8
DIMNSIONS
  6
CONTINUOUS
 62
     7
 10
-43.750000000100663
 20
74.999999999897895
 30
0.0
 11
-43.750000000100663
 21
73.000539557347096
 31
0.0
  0
LINE
  5
98
  8
DIMNSIONS
  6
CONTINUOUS
 62
     7
 10
-43.750000000100663
 20
73.000539557347096
 30
0.0
 11
-43.750000000100663
 21
65.222222221764653
 31
0.0
  0
LINE
  5
99
  8
DIMNSIONS
  6
CONTINUOUS
 62
     7
 10
-43.750000000100663
 20
73.000539557347096
 30
0.0
 11
-42.409920409800172
 21
67.999294440159602
 31
0.0
  0
LINE
  5
9A
  8
DIMNSIONS
  6
CONTINUOUS
 62
     7
 10
-43.750000000100663
 20
73.000539557347096
 30
0.0
 11
-45.090079590401139
 21
67.999294440159602
 31
0.0
  0
LINE
  5
9B
  8
DIMNSIONS
  6
CONTINUOUS
 62
     7
 10
-43.750000000100663
 20
74.999999999897895
 30
0.0
 11
-43.750000000100663
 21
84.999999999897895
 31
0.0
  0
LINE
  5
9C
  8
DIMNSIONS
  6
CONTINUOUS
 62
     7
 10
-43.750000000100663
 20
74.999999999897895
 30
0.0
 11
-45.090079590401139
 21
80.001245117085389
 31
0.0
  0
LINE
  5
9D
  8
DIMNSIONS
  6
CONTINUOUS
 62
     7
 10
-43.750000000100663
 20
74.999999999897895
 30
0.0
 11
-42.409920409800172
 21
80.001245117085389
 31
0.0
  0
TEXT
  5
9E
  8
DIMNSIONS
 62
     7
 10
-45.737777777878406
 20
65.222222221764653
 30
0.0
 40
5.4294704861111107
  1
2
 50
90.0
 41
0.7
 11
-51.167248263989528
 21
65.222222221764653
 31
0.0
 73
     3
  0
LINE
  5
9F
  8
DIMNSIONS
  6
CONTINUOUS
 62
     7
 10
-31.250000000319609
 20
70.999999999897895
 30
0.0
 11
-31.250000000319609
 21
58.499999999542418
 31
0.0
  0
LINE
  5
A0
  8
DIMNSIONS
  6
CONTINUOUS
 62
     7
 10
3.749999999680512
 20
70.999999999897895
 30
0.0
 11
3.749999999680512
 21
58.499999999542418
 31
0.0
  0
LINE
  5
A1
  8
DIMNSIONS
  6
CONTINUOUS
 62
     7
 10
-31.250000000319609
 20
62.49999999954241
 30
0.0
 11
3.749999999680512
 21
62.49999999954241
 31
0.0
  0
LINE
  5
A2
  8
DIMNSIONS
  6
CONTINUOUS
 62
     7
 10
-31.250000000319609
 20
62.49999999954241
 30
0.0
 11
-26.248754883132118
 21
63.840079589842922
 31
0.0
  0
LINE
  5
A3
  8
DIMNSIONS
  6
CONTINUOUS
 62
     7
 10
-31.250000000319609
 20
62.49999999954241
 30
0.0
 11
-26.248754883132118
 21
61.159920409241941
 31
0.0
  0
LINE
  5
A4
  8
DIMNSIONS
  6
CONTINUOUS
 62
     7
 10
3.749999999680512
 20
62.49999999954241
 30
0.0
 11
-1.2512451175069821
 21
61.159920409241941
 31
0.0
  0
LINE
  5
A5
  8
DIMNSIONS
  6
CONTINUOUS
 62
     7
 10
3.749999999680512
 20
62.49999999954241
 30
0.0
 11
-1.2512451175069821
 21
63.840079589842922
 31
0.0
  0
TEXT
  5
A6
  8
DIMNSIONS
 62
     7
 10
-17.277777778097331
 20
64.487777777320204
 30
0.0
 40
5.4294704861111107
  1
35
 41
0.7
 11
-17.277777778097331
 21
69.917248263431318
 31
0.0
 73
     3
  0
LINE
  5
A7
  8
DIMNSIONS
  6
CONTINUOUS
 62
     7
 10
83.500000000056204
 20
118.74999999939961
 30
0.0
 11
71.0
 21
118.74999999939961
 31
0.0
  0
LINE
  5
A8
  8
DIMNSIONS
  6
CONTINUOUS
 62
     7
 10
83.500000000056204
 20
211.74999999939979
 30
0.0
 11
71.0
 21
211.74999999939979
 31
0.0
  0
LINE
  5
A9
  8
DIMNSIONS
  6
CONTINUOUS
 62
     7
 10
75.0
 20
118.74999999939961
 30
0.0
 11
75.0
 21
211.74999999939979
 31
0.0
  0
LINE
  5
AA
  8
DIMNSIONS
  6
CONTINUOUS
 62
     7
 10
75.0
 20
118.74999999939961
 30
0.0
 11
73.659920409699509
 21
123.7512451165871
 31
0.0
  0
LINE
  5
AB
  8
DIMNSIONS
  6
CONTINUOUS
 62
     7
 10
75.0
 20
118.74999999939961
 30
0.0
 11
76.340079590300505
 21
123.7512451165871
 31
0.0
  0
LINE
  5
AC
  8
DIMNSIONS
  6
CONTINUOUS
 62
     7
 10
75.0
 20
211.74999999939979
 30
0.0
 11
76.340079590300505
 21
206.7487548822123
 31
0.0
  0
LINE
  5
AD
  8
DIMNSIONS
  6
CONTINUOUS
 62
     7
 10
75.0
 20
211.74999999939979
 30
0.0
 11
73.659920409699509
 21
206.7487548822123
 31
0.0
  0
TEXT
  5
AE
  8
DIMNSIONS
 62
     7
 10
73.012222222222221
 20
161.72222222162191
 30
0.0
 40
5.4294704861111107
  1
93
 50
90.0
 41
0.7
 11
67.582751736111106
 21
161.72222222162191
 31
0.0
 73
     3
  0
LINE
  5
AF
  8
DIMNSIONS
  6
CONTINUOUS
 62
     7
 10
83.500000000056204
 20
211.74999999939979
 30
0.0
 11
71.0
 21
211.74999999939979
 31
0.0
  0
LINE
  5
B0
  8
DIMNSIONS
  6
CONTINUOUS
 62
     7
 10
85.833534856995385
 20
215.74999999939979
 30
0.0
 11
71.0
 21
215.74999999939979
 31
0.0
  0
LINE
  5
B1
  8
DIMNSIONS
  6
CONTINUOUS
 62
     7
 10
75.0
 20
215.74999999939979
 30
0.0
 11
75.0
 21
211.74999999939979
 31
0.0
  0
LINE
  5
B2
  8
DIMNSIONS
  6
CONTINUOUS
 62
     7
 10
75.0
 20
211.74999999939979
 30
0.0
 11
75.0
 21
201.74999999939979
 31
0.0
  0
LINE
  5
B3
  8
DIMNSIONS
  6
CONTINUOUS
 62
     7
 10
75.0
 20
211.74999999939979
 30
0.0
 11
76.340079590300505
 21
206.7487548822123
 31
0.0
  0
LINE
  5
B4
  8
DIMNSIONS
  6
CONTINUOUS
 62
     7
 10
75.0
 20
211.74999999939979
 30
0.0
 11
73.659920409699509
 21
206.7487548822123
 31
0.0
  0
LINE
  5
B5
  8
DIMNSIONS
  6
CONTINUOUS
 62
     7
 10
75.0
 20
215.74999999939979
 30
0.0
 11
75.0
 21
227.0277777777778
 31
0.0
  0
LINE
  5
B6
  8
DIMNSIONS
  6
CONTINUOUS
 62
     7
 10
75.0
 20
215.74999999939979
 30
0.0
 11
73.659920409699509
 21
220.75124511658731
 31
0.0
  0
LINE
  5
B7
  8
DIMNSIONS
  6
CONTINUOUS
 62
     7
 10
75.0
 20
215.74999999939979
 30
0.0
 11
76.340079590300505
 21
220.75124511658731
 31
0.0
  0
TEXT
  5
B8
  8
DIMNSIONS
 62
     7
 10
73.012222222222221
 20
223.5
 30
0.0
 40
5.4294704861111107
  1
4
 50
90.0
 41
0.7
 11
67.582751736111106
 21
223.5
 31
0.0
 73
     3
  0
LINE
  5
B9
  8
DIMNSIONS
  6
CONTINUOUS
 62
     7
 10
83.500000000056204
 20
74.999999999895707
 30
0.0
 11
71.0
 21
74.999999999895707
 31
0.0
  0
LINE
  5
BA
  8
DIMNSIONS
  6
CONTINUOUS
 62
     7
 10
85.000000000056218
 20
98.999999999895053
 30
0.0
 11
71.0
 21
98.999999999895053
 31
0.0
  0
LINE
  5
BB
  8
DIMNSIONS
  6
CONTINUOUS
 62
     7
 10
75.0
 20
74.999999999895707
 30
0.0
 11
75.0
 21
98.999999999895053
 31
0.0
  0
LINE
  5
BC
  8
DIMNSIONS
  6
CONTINUOUS
 62
     7
 10
75.0
 20
74.999999999895707
 30
0.0
 11
73.659920409699509
 21
80.001245117083215
 31
0.0
  0
LINE
  5
BD
  8
DIMNSIONS
  6
CONTINUOUS
 62
     7
 10
75.0
 20
74.999999999895707
 30
0.0
 11
76.340079590300505
 21
80.001245117083215
 31
0.0
  0
LINE
  5
BE
  8
DIMNSIONS
  6
CONTINUOUS
 62
     7
 10
75.0
 20
98.999999999895053
 30
0.0
 11
76.340079590300505
 21
93.998754882707516
 31
0.0
  0
LINE
  5
BF
  8
DIMNSIONS
  6
CONTINUOUS
 62
     7
 10
75.0
 20
98.999999999895053
 30
0.0
 11
73.659920409699509
 21
93.998754882707516
 31
0.0
  0
TEXT
  5
C0
  8
DIMNSIONS
 62
     7
 10
73.012222222222221
 20
83.472222222117594
 30
0.0
 40
5.4294704861111107
  1
24
 50
90.0
 41
0.7
 11
67.582751736111106
 21
83.472222222117594
 31
0.0
 73
     3
  0
LINE
  5
C1
  8
DIMNSIONS
  6
CONTINUOUS
 62
     7
 10
90.319999999999993
 20
73.000000004359805
 30
0.0
 11
71.0
 21
73.000000004359805
 31
0.0
  0
LINE
  5
C2
  8
DIMNSIONS
  6
CONTINUOUS
 62
     7
 10
83.500000000056204
 20
74.999999999895707
 30
0.0
 11
71.0
 21
74.999999999895707
 31
0.0
  0
LINE
  5
C3
  8
DIMNSIONS
  6
CONTINUOUS
 62
     7
 10
75.0
 20
74.999999999895707
 30
0.0
 11
75.0
 21
73.000000004359805
 31
0.0
  0
LINE
  5
C4
  8
DIMNSIONS
  6
CONTINUOUS
 62
     7
 10
75.0
 20
73.000000004359805
 30
0.0
 11
75.0
 21
62.472222222222221
 31
0.0
  0
LINE
  5
C5
  8
DIMNSIONS
  6
CONTINUOUS
 62
     7
 10
75.0
 20
73.000000004359805
 30
0.0
 11
76.340079590300505
 21
67.998754887172325
 31
0.0
  0
LINE
  5
C6
  8
DIMNSIONS
  6
CONTINUOUS
 62
     7
 10
75.0
 20
73.000000004359805
 30
0.0
 11
73.659920409699509
 21
67.998754887172325
 31
0.0
  0
LINE
  5
C7
  8
DIMNSIONS
  6
CONTINUOUS
 62
     7
 10
75.0
 20
74.999999999895707
 30
0.0
 11
75.0
 21
84.999999999895707
 31
0.0
  0
LINE
  5
C8
  8
DIMNSIONS
  6
CONTINUOUS
 62
     7
 10
75.0
 20
74.999999999895707
 30
0.0
 11
73.659920409699509
 21
80.001245117083215
 31
0.0
  0
LINE
  5
C9
  8
DIMNSIONS
  6
CONTINUOUS
 62
     7
 10
75.0
 20
74.999999999895707
 30
0.0
 11
76.340079590300505
 21
80.001245117083215
 31
0.0
  0
TEXT
  5
CA
  8
DIMNSIONS
 62
     7
 10
73.012222222222221
 20
62.472222222222243
 30
0.0
 40
5.4294704861111107
  1
2
 50
90.0
 41
0.7
 11
67.582751736111106
 21
62.472222222222243
 31
0.0
 73
     3
  0
LINE
  5
CB
  8
DIMNSIONS
  6
CONTINUOUS
 62
     7
 10
87.500000000056204
 20
70.999999999895721
 30
0.0
 11
87.500000000056204
 21
58.5
 31
0.0
  0
LINE
  5
CC
  8
DIMNSIONS
  6
CONTINUOUS
 62
     7
 10
122.5000000000562
 20
70.999999999895721
 30
0.0
 11
122.5000000000562
 21
58.5
 31
0.0
  0
LINE
  5
CD
  8
DIMNSIONS
  6
CONTINUOUS
 62
     7
 10
87.500000000056204
 20
62.5
 30
0.0
 11
122.5000000000562
 21
62.5
 31
0.0
  0
LINE
  5
CE
  8
DIMNSIONS
  6
CONTINUOUS
 62
     7
 10
87.500000000056204
 20
62.5
 30
0.0
 11
92.501245117243698
 21
63.840079590300491
 31
0.0
  0
LINE
  5
CF
  8
DIMNSIONS
  6
CONTINUOUS
 62
     7
 10
87.500000000056204
 20
62.5
 30
0.0
 11
92.501245117243698
 21
61.159920409699509
 31
0.0
  0
LINE
  5
D0
  8
DIMNSIONS
  6
CONTINUOUS
 62
     7
 10
122.5000000000562
 20
62.5
 30
0.0
 11
117.4987548828687
 21
61.159920409699509
 31
0.0
  0
LINE
  5
D1
  8
DIMNSIONS
  6
CONTINUOUS
 62
     7
 10
122.5000000000562
 20
62.5
 30
0.0
 11
117.4987548828687
 21
63.840079590300491
 31
0.0
  0
TEXT
  5
D2
  8
DIMNSIONS
 62
     7
 10
101.4722222222784
 20
64.487777777777794
 30
0.0
 40
5.4294704861111107
  1
35
 41
0.7
 11
101.4722222222784
 21
69.917248263888908
 31
0.0
 73
     3
  0
TEXT
  5
D3
  8
DATA
 62
     7
 10
-60.0
 20
-108.0057254530948
 30
0.0
 40
3.2576822916666659
  1
仕様および外観は予告なく変更されることがありますので、ご了承ください。
 41
0.7
 11
-60.0
 21
-104.7480431614282
 31
0.0
 73
     3
  0
TEXT
  5
D4
  8
DATA
 62
     7
 10
199.69999999999999
 20
-94.339548033015404
 30
0.0
 40
4.8865234375000002
  1
EXT-VGA-141LR
 41
0.7
 11
199.69999999999999
 21
-89.453024595515387
 31
0.0
 73
     3
  0
TEXT
  5
D5
  8
DATA
 62
     7
 10
199.77608675388549
 20
-78.459714364339845
 30
0.0
 40
4.8865234375000002
  1
Gefen
 41
0.7
 11
199.77608675388549
 21
-73.573190926839843
 31
0.0
 73
     3
  0
TEXT
  5
D6
  8
DATA
 62
     7
 10
195.80000000000001
 20
-85.837514498476764
 30
0.0
 40
3.2576822916666659
  1
VGA延長機
 41
0.7
 11
195.80000000000001
 21
-82.579832206810096
 31
0.0
 73
     3
  0
LINE
  5
D7
  8
DATA
  6
CONTINUOUS
 62
     7
 10
-31.250000000319609
 20
118.74999999969739
 30
0.0
 11
-31.250000000319609
 21
211.74999999969751
 31
0.0
  0
LINE
  5
D8
  8
DATA
  6
CONTINUOUS
 62
     7
 10
3.749999999680512
 20
118.74999999969739
 30
0.0
 11
-31.250000000319609
 21
118.74999999969739
 31
0.0
  0
LINE
  5
D9
  8
DATA
  6
CONTINUOUS
 62
     7
 10
3.749999999680512
 20
211.74999999969751
 30
0.0
 11
3.749999999680512
 21
118.74999999969739
 31
0.0
  0
LINE
  5
DA
  8
DATA
  6
CONTINUOUS
 62
     7
 10
-31.250000000319609
 20
211.74999999969751
 30
0.0
 11
3.749999999680512
 21
211.74999999969751
 31
0.0
  0
LINE
  5
DB
  8
DATA
  6
CONTINUOUS
 62
     7
 10
-31.250000000319609
 20
74.999999999897895
 30
0.0
 11
-31.250000000319609
 21
97.499999999897597
 31
0.0
  0
LINE
  5
DC
  8
DATA
  6
CONTINUOUS
 62
     7
 10
3.749999999680512
 20
74.999999999897895
 30
0.0
 11
-7.2500000003194884
 21
74.999999999897895
 31
0.0
  0
LINE
  5
DD
  8
DATA
  6
CONTINUOUS
 62
     7
 10
-20.250000000319599
 20
74.999999999897895
 30
0.0
 11
-31.250000000319609
 21
74.999999999897895
 31
0.0
  0
LINE
  5
DE
  8
DATA
  6
CONTINUOUS
 62
     7
 10
3.749999999680512
 20
97.499999999897597
 30
0.0
 11
3.749999999680512
 21
74.999999999897895
 31
0.0
  0
LINE
  5
DF
  8
DATA
  6
CONTINUOUS
 62
     7
 10
-29.750000000319609
 20
98.999999999897554
 30
0.0
 11
2.249999999680512
 21
98.999999999897554
 31
0.0
  0
LINE
  5
E0
  8
DATA
  6
CONTINUOUS
 62
     7
 10
-31.250000000319609
 20
75.999999999897895
 30
0.0
 11
3.749999999680512
 21
75.999999999897895
 31
0.0
  0
LINE
  5
E1
  8
DATA
  6
CONTINUOUS
 62
     7
 10
-20.250000000319599
 20
74.999999999897895
 30
0.0
 11
-20.250000000319599
 21
75.999999999897895
 31
0.0
  0
LINE
  5
E2
  8
DATA
  6
CONTINUOUS
 62
     7
 10
-7.2500000003194884
 20
75.999999999897895
 30
0.0
 11
-7.2500000003194884
 21
74.999999999897895
 31
0.0
  0
LINE
  5
E3
  8
DATA
  6
CONTINUOUS
 62
     7
 10
-31.250000000319609
 20
248.99999999945661
 30
0.0
 11
-31.250000000319609
 21
226.4999999994572
 31
0.0
  0
LINE
  5
E4
  8
DATA
  6
CONTINUOUS
 62
     7
 10
3.749999999680512
 20
248.99999999945661
 30
0.0
 11
-7.2500000003194884
 21
248.99999999945661
 31
0.0
  0
LINE
  5
E5
  8
DATA
  6
CONTINUOUS
 62
     7
 10
-20.250000000319599
 20
248.99999999945661
 30
0.0
 11
-31.250000000319609
 21
248.99999999945661
 31
0.0
  0
LINE
  5
E6
  8
DATA
  6
CONTINUOUS
 62
     7
 10
3.749999999680512
 20
226.4999999994572
 30
0.0
 11
3.749999999680512
 21
248.99999999945661
 31
0.0
  0
LINE
  5
E7
  8
DATA
  6
CONTINUOUS
 62
     7
 10
-29.750000000319609
 20
224.9999999994572
 30
0.0
 11
2.249999999680512
 21
224.9999999994572
 31
0.0
  0
LINE
  5
E8
  8
DATA
  6
CONTINUOUS
 62
     7
 10
-31.250000000319609
 20
247.99999999945661
 30
0.0
 11
3.749999999680512
 21
247.99999999945661
 31
0.0
  0
LINE
  5
E9
  8
DATA
  6
CONTINUOUS
 62
     7
 10
-20.250000000319599
 20
248.99999999945661
 30
0.0
 11
-20.250000000319599
 21
247.99999999945661
 31
0.0
  0
LINE
  5
EA
  8
DATA
  6
CONTINUOUS
 62
     7
 10
-7.2500000003194884
 20
247.99999999945661
 30
0.0
 11
-7.2500000003194884
 21
248.99999999945661
 31
0.0
  0
LINE
  5
EB
  8
DATA
  6
CONTINUOUS
 62
     7
 10
12.49999999978051
 20
118.74999999969739
 30
0.0
 11
12.49999999978051
 21
211.74999999969751
 31
0.0
  0
LINE
  5
EC
  8
DATA
  6
CONTINUOUS
 62
     7
 10
36.499999999780641
 20
118.74999999969739
 30
0.0
 11
12.49999999978051
 21
118.74999999969739
 31
0.0
  0
LINE
  5
ED
  8
DATA
  6
CONTINUOUS
 62
     7
 10
36.499999999780641
 20
211.74999999969751
 30
0.0
 11
36.499999999780641
 21
118.74999999969739
 31
0.0
  0
LINE
  5
EE
  8
DATA
  6
CONTINUOUS
 62
     7
 10
12.49999999978051
 20
211.74999999969751
 30
0.0
 11
36.499999999780641
 21
211.74999999969751
 31
0.0
  0
TEXT
  5
EF
  8
DATA
 62
     7
 10
-11.25696637661548
 20
141.13825427786301
 30
0.0
 40
7.3297851562499989
  1
theVGAextender
 50
90.0
 41
0.7
 11
-18.586751532865481
 21
141.13825427786301
 31
0.0
 73
     3
  0
TEXT
  5
F0
  8
DATA
 62
     7
 10
-4.8172784321919089
 20
188.0456080505657
 30
0.0
 40
4.072102864583333
  1
Sender
 50
90.0
 41
0.7
 11
-8.8893812967752428
 21
188.0456080505657
 31
0.0
 73
     3
  0
TEXT
  5
F1
  8
DATA
 62
     7
 10
-19.373830013106751
 20
77.753292284394774
 30
0.0
 40
2.8097509765624999
  1
VGA In
 41
0.7
 11
-19.373830013106751
 21
80.563043260957272
 31
0.0
 73
     3
  0
POLYLINE
  5
F2
  8
DATA
  6
CONTINUOUS
 62
     7
 66
     1
 10
0.0
 20
0.0
 30
0.0
 70
   129
  0
VERTEX
  5
3F8
  8
DATA
  6
CONTINUOUS
 62
     7
 10
-11.041027643144821
 20
90.024818662705243
 30
0.0
 42
-0.4142135623730951
  0
VERTEX
  5
3F9
  8
DATA
  6
CONTINUOUS
 62
     7
 10
-10.54102764314481
 20
90.524818662705229
 30
0.0
 42
-0.4142135623730951
  0
VERTEX
  5
3FA
  8
DATA
  6
CONTINUOUS
 62
     7
 10
-10.04102764314481
 20
90.024818662705243
 30
0.0
 42
-0.4142135623730951
  0
VERTEX
  5
3FB
  8
DATA
  6
CONTINUOUS
 62
     7
 10
-10.54102764314481
 20
89.524818662705243
 30
0.0
 42
-0.4142135623730951
  0
VERTEX
  5
3FC
  8
DATA
  6
CONTINUOUS
 62
     7
 10
-11.041027643144821
 20
90.024818662705243
 30
0.0
  0
SEQEND
  5
3FD
  8
DATA
  6
CONTINUOUS
 62
     7
  0
LINE
  5
F9
  8
DATA
  6
CONTINUOUS
 62
     7
 10
-20.471081757086552
 20
94.194818662705217
 30
0.0
 11
-7.5710817570864322
 21
94.194818662705217
 31
0.0
  0
LINE
  5
FA
  8
DATA
  6
CONTINUOUS
 62
     7
 10
-20.094511757086561
 20
85.854818662705327
 30
0.0
 11
-7.9476417570864131
 21
85.854818662705327
 31
0.0
  0
POLYLINE
  5
FB
  8
DATA
  6
CONTINUOUS
 62
     7
 66
     1
 10
0.0
 20
0.0
 30
0.0
 70
   129
  0
VERTEX
  5
3FE
  8
DATA
  6
CONTINUOUS
 62
     7
 10
-13.32102764314484
 20
90.024818662705243
 30
0.0
 42
-0.4142135623731035
  0
VERTEX
  5
3FF
  8
DATA
  6
CONTINUOUS
 62
     7
 10
-12.821027643144831
 20
90.524818662705229
 30
0.0
 42
-0.4142135623731035
  0
VERTEX
  5
400
  8
DATA
  6
CONTINUOUS
 62
     7
 10
-12.321027643144809
 20
90.024818662705243
 30
0.0
 42
-0.4142135623730868
  0
VERTEX
  5
401
  8
DATA
  6
CONTINUOUS
 62
     7
 10
-12.821027643144831
 20
89.524818662705243
 30
0.0
 42
-0.4142135623730951
  0
VERTEX
  5
402
  8
DATA
  6
CONTINUOUS
 62
     7
 10
-13.32102764314484
 20
90.024818662705243
 30
0.0
  0
SEQEND
  5
403
  8
DATA
  6
CONTINUOUS
 62
     7
  0
POLYLINE
  5
102
  8
DATA
  6
CONTINUOUS
 62
     7
 66
     1
 10
0.0
 20
0.0
 30
0.0
 70
   129
  0
VERTEX
  5
404
  8
DATA
  6
CONTINUOUS
 62
     7
 10
-18.823096187470949
 20
88.044818662705282
 30
0.0
 42
-0.4142135623730951
  0
VERTEX
  5
405
  8
DATA
  6
CONTINUOUS
 62
     7
 10
-18.323096187470949
 20
88.544818662705282
 30
0.0
 42
-0.4142135623730951
  0
VERTEX
  5
406
  8
DATA
  6
CONTINUOUS
 62
     7
 10
-17.823096187470949
 20
88.044818662705282
 30
0.0
 42
-0.4142135623730951
  0
VERTEX
  5
407
  8
DATA
  6
CONTINUOUS
 62
     7
 10
-18.323096187470949
 20
87.544818662705296
 30
0.0
 42
-0.4142135623730951
  0
VERTEX
  5
408
  8
DATA
  6
CONTINUOUS
 62
     7
 10
-18.823096187470949
 20
88.044818662705282
 30
0.0
  0
SEQEND
  5
409
  8
DATA
  6
CONTINUOUS
 62
     7
  0
POLYLINE
  5
109
  8
DATA
  6
CONTINUOUS
 62
     7
 66
     1
 10
0.0
 20
0.0
 30
0.0
 70
   129
  0
VERTEX
  5
40A
  8
DATA
  6
CONTINUOUS
 62
     7
 10
-16.533096187470932
 20
88.044818662705282
 30
0.0
 42
-0.4142135623730951
  0
VERTEX
  5
40B
  8
DATA
  6
CONTINUOUS
 62
     7
 10
-16.033096187470932
 20
88.544818662705282
 30
0.0
 42
-0.4142135623730951
  0
VERTEX
  5
40C
  8
DATA
  6
CONTINUOUS
 62
     7
 10
-15.53309618747093
 20
88.044818662705282
 30
0.0
 42
-0.4142135623730951
  0
VERTEX
  5
40D
  8
DATA
  6
CONTINUOUS
 62
     7
 10
-16.033096187470932
 20
87.544818662705296
 30
0.0
 42
-0.4142135623730951
  0
VERTEX
  5
40E
  8
DATA
  6
CONTINUOUS
 62
     7
 10
-16.533096187470932
 20
88.044818662705282
 30
0.0
  0
SEQEND
  5
40F
  8
DATA
  6
CONTINUOUS
 62
     7
  0
POLYLINE
  5
110
  8
DATA
  6
CONTINUOUS
 62
     7
 66
     1
 10
0.0
 20
0.0
 30
0.0
 70
   129
  0
VERTEX
  5
410
  8
DATA
  6
CONTINUOUS
 62
     7
 10
-14.243096187470879
 20
88.044818662705282
 30
0.0
 42
-0.4142135623730951
  0
VERTEX
  5
411
  8
DATA
  6
CONTINUOUS
 62
     7
 10
-13.74309618747086
 20
88.544818662705282
 30
0.0
 42
-0.4142135623730951
  0
VERTEX
  5
412
  8
DATA
  6
CONTINUOUS
 62
     7
 10
-13.243096187470851
 20
88.044818662705282
 30
0.0
 42
-0.4142135623730951
  0
VERTEX
  5
413
  8
DATA
  6
CONTINUOUS
 62
     7
 10
-13.74309618747086
 20
87.544818662705296
 30
0.0
 42
-0.4142135623731035
  0
VERTEX
  5
414
  8
DATA
  6
CONTINUOUS
 62
     7
 10
-14.243096187470879
 20
88.044818662705282
 30
0.0
  0
SEQEND
  5
415
  8
DATA
  6
CONTINUOUS
 62
     7
  0
POLYLINE
  5
117
  8
DATA
  6
CONTINUOUS
 62
     7
 66
     1
 10
0.0
 20
0.0
 30
0.0
 70
   129
  0
VERTEX
  5
416
  8
DATA
  6
CONTINUOUS
 62
     7
 10
-11.96309618747088
 20
88.044818662705282
 30
0.0
 42
-0.4142135623730951
  0
VERTEX
  5
417
  8
DATA
  6
CONTINUOUS
 62
     7
 10
-11.46309618747086
 20
88.544818662705282
 30
0.0
 42
-0.4142135623731035
  0
VERTEX
  5
418
  8
DATA
  6
CONTINUOUS
 62
     7
 10
-10.96309618747085
 20
88.044818662705282
 30
0.0
 42
-0.4142135623730784
  0
VERTEX
  5
419
  8
DATA
  6
CONTINUOUS
 62
     7
 10
-11.46309618747086
 20
87.544818662705296
 30
0.0
 42
-0.4142135623730951
  0
VERTEX
  5
41A
  8
DATA
  6
CONTINUOUS
 62
     7
 10
-11.96309618747088
 20
88.044818662705282
 30
0.0
  0
SEQEND
  5
41B
  8
DATA
  6
CONTINUOUS
 62
     7
  0
POLYLINE
  5
11E
  8
DATA
  6
CONTINUOUS
 62
     7
 66
     1
 10
0.0
 20
0.0
 30
0.0
 70
   129
  0
VERTEX
  5
41C
  8
DATA
  6
CONTINUOUS
 62
     7
 10
-18.823096187470949
 20
92.004818662705233
 30
0.0
 42
-0.4142135623730951
  0
VERTEX
  5
41D
  8
DATA
  6
CONTINUOUS
 62
     7
 10
-18.323096187470949
 20
92.504818662705233
 30
0.0
 42
-0.4142135623730951
  0
VERTEX
  5
41E
  8
DATA
  6
CONTINUOUS
 62
     7
 10
-17.823096187470949
 20
92.004818662705233
 30
0.0
 42
-0.4142135623730951
  0
VERTEX
  5
41F
  8
DATA
  6
CONTINUOUS
 62
     7
 10
-18.323096187470949
 20
91.504818662705219
 30
0.0
 42
-0.4142135623730951
  0
VERTEX
  5
420
  8
DATA
  6
CONTINUOUS
 62
     7
 10
-18.823096187470949
 20
92.004818662705233
 30
0.0
  0
SEQEND
  5
421
  8
DATA
  6
CONTINUOUS
 62
     7
  0
POLYLINE
  5
125
  8
DATA
  6
CONTINUOUS
 62
     7
 66
     1
 10
0.0
 20
0.0
 30
0.0
 70
   129
  0
VERTEX
  5
422
  8
DATA
  6
CONTINUOUS
 62
     7
 10
-16.533096187470932
 20
92.004818662705233
 30
0.0
 42
-0.4142135623730951
  0
VERTEX
  5
423
  8
DATA
  6
CONTINUOUS
 62
     7
 10
-16.033096187470932
 20
92.504818662705233
 30
0.0
 42
-0.4142135623730951
  0
VERTEX
  5
424
  8
DATA
  6
CONTINUOUS
 62
     7
 10
-15.53309618747093
 20
92.004818662705233
 30
0.0
 42
-0.4142135623730951
  0
VERTEX
  5
425
  8
DATA
  6
CONTINUOUS
 62
     7
 10
-16.033096187470932
 20
91.504818662705219
 30
0.0
 42
-0.4142135623730951
  0
VERTEX
  5
426
  8
DATA
  6
CONTINUOUS
 62
     7
 10
-16.533096187470932
 20
92.004818662705233
 30
0.0
  0
SEQEND
  5
427
  8
DATA
  6
CONTINUOUS
 62
     7
  0
POLYLINE
  5
12C
  8
DATA
  6
CONTINUOUS
 62
     7
 66
     1
 10
0.0
 20
0.0
 30
0.0
 70
   129
  0
VERTEX
  5
428
  8
DATA
  6
CONTINUOUS
 62
     7
 10
-14.243096187470879
 20
92.004818662705233
 30
0.0
 42
-0.4142135623730784
  0
VERTEX
  5
429
  8
DATA
  6
CONTINUOUS
 62
     7
 10
-13.74309618747086
 20
92.504818662705233
 30
0.0
 42
-0.4142135623730951
  0
VERTEX
  5
42A
  8
DATA
  6
CONTINUOUS
 62
     7
 10
-13.243096187470851
 20
92.004818662705233
 30
0.0
 42
-0.4142135623730951
  0
VERTEX
  5
42B
  8
DATA
  6
CONTINUOUS
 62
     7
 10
-13.74309618747086
 20
91.504818662705219
 30
0.0
 42
-0.4142135623731035
  0
VERTEX
  5
42C
  8
DATA
  6
CONTINUOUS
 62
     7
 10
-14.243096187470879
 20
92.004818662705233
 30
0.0
  0
SEQEND
  5
42D
  8
DATA
  6
CONTINUOUS
 62
     7
  0
POLYLINE
  5
133
  8
DATA
  6
CONTINUOUS
 62
     7
 66
     1
 10
0.0
 20
0.0
 30
0.0
 70
   129
  0
VERTEX
  5
42E
  8
DATA
  6
CONTINUOUS
 62
     7
 10
-11.96309618747088
 20
92.004818662705233
 30
0.0
 42
-0.4142135623730951
  0
VERTEX
  5
42F
  8
DATA
  6
CONTINUOUS
 62
     7
 10
-11.46309618747086
 20
92.504818662705233
 30
0.0
 42
-0.4142135623731035
  0
VERTEX
  5
430
  8
DATA
  6
CONTINUOUS
 62
     7
 10
-10.96309618747085
 20
92.004818662705233
 30
0.0
 42
-0.4142135623730951
  0
VERTEX
  5
431
  8
DATA
  6
CONTINUOUS
 62
     7
 10
-11.46309618747086
 20
91.504818662705219
 30
0.0
 42
-0.4142135623730951
  0
VERTEX
  5
432
  8
DATA
  6
CONTINUOUS
 62
     7
 10
-11.96309618747088
 20
92.004818662705233
 30
0.0
  0
SEQEND
  5
433
  8
DATA
  6
CONTINUOUS
 62
     7
  0
POLYLINE
  5
13A
  8
DATA
  6
CONTINUOUS
 62
     7
 66
     1
 10
0.0
 20
0.0
 30
0.0
 70
   129
  0
VERTEX
  5
434
  8
DATA
  6
CONTINUOUS
 62
     7
 10
-20.181027643144908
 20
90.024818662705243
 30
0.0
 42
-0.4142135623730784
  0
VERTEX
  5
435
  8
DATA
  6
CONTINUOUS
 62
     7
 10
-19.681027643144901
 20
90.524818662705229
 30
0.0
 42
-0.4142135623730951
  0
VERTEX
  5
436
  8
DATA
  6
CONTINUOUS
 62
     7
 10
-19.181027643144891
 20
90.024818662705243
 30
0.0
 42
-0.4142135623730951
  0
VERTEX
  5
437
  8
DATA
  6
CONTINUOUS
 62
     7
 10
-19.681027643144901
 20
89.524818662705243
 30
0.0
 42
-0.4142135623731035
  0
VERTEX
  5
438
  8
DATA
  6
CONTINUOUS
 62
     7
 10
-20.181027643144908
 20
90.024818662705243
 30
0.0
  0
SEQEND
  5
439
  8
DATA
  6
CONTINUOUS
 62
     7
  0
POLYLINE
  5
141
  8
DATA
  6
CONTINUOUS
 62
     7
 66
     1
 10
0.0
 20
0.0
 30
0.0
 70
   129
  0
VERTEX
  5
43A
  8
DATA
  6
CONTINUOUS
 62
     7
 10
-17.901027643144879
 20
90.024818662705243
 30
0.0
 42
-0.4142135623730951
  0
VERTEX
  5
43B
  8
DATA
  6
CONTINUOUS
 62
     7
 10
-17.401027643144879
 20
90.524818662705229
 30
0.0
 42
-0.4142135623730951
  0
VERTEX
  5
43C
  8
DATA
  6
CONTINUOUS
 62
     7
 10
-16.901027643144879
 20
90.024818662705243
 30
0.0
 42
-0.4142135623730951
  0
VERTEX
  5
43D
  8
DATA
  6
CONTINUOUS
 62
     7
 10
-17.401027643144879
 20
89.524818662705243
 30
0.0
 42
-0.4142135623730951
  0
VERTEX
  5
43E
  8
DATA
  6
CONTINUOUS
 62
     7
 10
-17.901027643144879
 20
90.024818662705243
 30
0.0
  0
SEQEND
  5
43F
  8
DATA
  6
CONTINUOUS
 62
     7
  0
POLYLINE
  5
148
  8
DATA
  6
CONTINUOUS
 62
     7
 66
     1
 10
0.0
 20
0.0
 30
0.0
 70
   129
  0
VERTEX
  5
440
  8
DATA
  6
CONTINUOUS
 62
     7
 10
-15.61102764314486
 20
90.024818662705243
 30
0.0
 42
-0.4142135623730868
  0
VERTEX
  5
441
  8
DATA
  6
CONTINUOUS
 62
     7
 10
-15.111027643144849
 20
90.524818662705229
 30
0.0
 42
-0.4142135623730951
  0
VERTEX
  5
442
  8
DATA
  6
CONTINUOUS
 62
     7
 10
-14.61102764314484
 20
90.024818662705243
 30
0.0
 42
-0.4142135623730868
  0
VERTEX
  5
443
  8
DATA
  6
CONTINUOUS
 62
     7
 10
-15.111027643144849
 20
89.524818662705243
 30
0.0
 42
-0.4142135623731035
  0
VERTEX
  5
444
  8
DATA
  6
CONTINUOUS
 62
     7
 10
-15.61102764314486
 20
90.024818662705243
 30
0.0
  0
SEQEND
  5
445
  8
DATA
  6
CONTINUOUS
 62
     7
  0
POLYLINE
  5
14F
  8
DATA
  6
CONTINUOUS
 62
     7
 66
     1
 10
0.0
 20
0.0
 30
0.0
 70
   129
  0
VERTEX
  5
446
  8
DATA
  6
CONTINUOUS
 62
     7
 10
-9.6730961874708612
 20
88.044818662705282
 30
0.0
 42
-0.4142135623730951
  0
VERTEX
  5
447
  8
DATA
  6
CONTINUOUS
 62
     7
 10
-9.1730961874708612
 20
88.544818662705282
 30
0.0
 42
-0.4142135623730951
  0
VERTEX
  5
448
  8
DATA
  6
CONTINUOUS
 62
     7
 10
-8.6730961874708612
 20
88.044818662705282
 30
0.0
 42
-0.4142135623730951
  0
VERTEX
  5
449
  8
DATA
  6
CONTINUOUS
 62
     7
 10
-9.1730961874708612
 20
87.544818662705296
 30
0.0
 42
-0.4142135623730951
  0
VERTEX
  5
44A
  8
DATA
  6
CONTINUOUS
 62
     7
 10
-9.6730961874708612
 20
88.044818662705282
 30
0.0
  0
SEQEND
  5
44B
  8
DATA
  6
CONTINUOUS
 62
     7
  0
POLYLINE
  5
156
  8
DATA
  6
CONTINUOUS
 62
     7
 66
     1
 10
0.0
 20
0.0
 30
0.0
 70
   129
  0
VERTEX
  5
44C
  8
DATA
  6
CONTINUOUS
 62
     7
 10
-9.6730961874708612
 20
92.004818662705233
 30
0.0
 42
-0.4142135623730951
  0
VERTEX
  5
44D
  8
DATA
  6
CONTINUOUS
 62
     7
 10
-9.1730961874708612
 20
92.504818662705233
 30
0.0
 42
-0.4142135623730951
  0
VERTEX
  5
44E
  8
DATA
  6
CONTINUOUS
 62
     7
 10
-8.6730961874708612
 20
92.004818662705233
 30
0.0
 42
-0.4142135623730951
  0
VERTEX
  5
44F
  8
DATA
  6
CONTINUOUS
 62
     7
 10
-9.1730961874708612
 20
91.504818662705219
 30
0.0
 42
-0.4142135623730951
  0
VERTEX
  5
450
  8
DATA
  6
CONTINUOUS
 62
     7
 10
-9.6730961874708612
 20
92.004818662705233
 30
0.0
  0
SEQEND
  5
451
  8
DATA
  6
CONTINUOUS
 62
     7
  0
ARC
  5
15D
  8
DATA
  6
CONTINUOUS
 62
     7
 10
-20.094511757086561
 20
87.354818662705284
 30
0.0
 40
1.49999800166532
 50
189.9999255496015
 51
270.0
  0
ARC
  5
15E
  8
DATA
  6
CONTINUOUS
 62
     7
 10
-20.471081757086552
 20
92.194818662705231
 30
0.0
 40
1.9999999999999709
 50
90.0
 51
180.0
  0
LINE
  5
15F
  8
DATA
  6
CONTINUOUS
 62
     7
 10
-22.471081757086552
 20
92.194818662705231
 30
0.0
 11
-21.57173175708655
 21
87.094348662705286
 31
0.0
  0
ARC
  5
160
  8
DATA
  6
CONTINUOUS
 62
     7
 10
-7.9476417570864131
 20
87.354818662705284
 30
0.0
 40
1.4999999999999709
 50
270.0
 51
350.00007445039893
  0
ARC
  5
161
  8
DATA
  6
CONTINUOUS
 62
     7
 10
-7.5710817570864322
 20
92.194818662705231
 30
0.0
 40
2.0
 50
0.0
 51
90.0
  0
LINE
  5
162
  8
DATA
  6
CONTINUOUS
 62
     7
 10
-5.5710817570864322
 20
92.194818662705231
 30
0.0
 11
-6.4704317570864012
 21
87.094348662705286
 31
0.0
  0
CIRCLE
  5
163
  8
DATA
  6
CONTINUOUS
 62
     7
 10
-1.4897801117119649
 20
90.007108971096272
 30
0.0
 40
1.1750000000001251
  0
POLYLINE
  5
164
  8
DATA
  6
CONTINUOUS
 62
     7
 66
     1
 10
0.0
 20
0.0
 30
0.0
 70
     1
  0
VERTEX
  5
452
  8
DATA
  6
CONTINUOUS
 62
     7
 10
-1.4897801117119649
 20
92.707108971096204
 30
0.0
  0
VERTEX
  5
453
  8
DATA
  6
CONTINUOUS
 62
     7
 10
-3.8280487019300442
 20
91.35710897109621
 30
0.0
  0
VERTEX
  5
454
  8
DATA
  6
CONTINUOUS
 62
     7
 10
-3.8280487019300442
 20
88.657108971096307
 30
0.0
  0
VERTEX
  5
455
  8
DATA
  6
CONTINUOUS
 62
     7
 10
-1.4897801117119649
 20
87.307108971096341
 30
0.0
  0
VERTEX
  5
456
  8
DATA
  6
CONTINUOUS
 62
     7
 10
0.8484884785061269
 20
88.657108971096307
 30
0.0
  0
VERTEX
  5
457
  8
DATA
  6
CONTINUOUS
 62
     7
 10
0.8484884785061269
 20
91.35710897109621
 30
0.0
  0
SEQEND
  5
458
  8
DATA
  6
CONTINUOUS
 62
     7
  0
CIRCLE
  5
16D
  8
DATA
  6
CONTINUOUS
 62
     7
 10
-26.48978011171247
 20
90.007108971096272
 30
0.0
 40
1.1750000000001251
  0
POLYLINE
  5
16E
  8
DATA
  6
CONTINUOUS
 62
     7
 66
     1
 10
0.0
 20
0.0
 30
0.0
 70
     1
  0
VERTEX
  5
459
  8
DATA
  6
CONTINUOUS
 62
     7
 10
-26.48978011171247
 20
92.707108971096204
 30
0.0
  0
VERTEX
  5
45A
  8
DATA
  6
CONTINUOUS
 62
     7
 10
-28.828048701930449
 20
91.35710897109621
 30
0.0
  0
VERTEX
  5
45B
  8
DATA
  6
CONTINUOUS
 62
     7
 10
-28.828048701930449
 20
88.657108971096307
 30
0.0
  0
VERTEX
  5
45C
  8
DATA
  6
CONTINUOUS
 62
     7
 10
-26.48978011171247
 20
87.307108971096341
 30
0.0
  0
VERTEX
  5
45D
  8
DATA
  6
CONTINUOUS
 62
     7
 10
-24.151511521494371
 20
88.657108971096307
 30
0.0
  0
VERTEX
  5
45E
  8
DATA
  6
CONTINUOUS
 62
     7
 10
-24.151511521494371
 20
91.35710897109621
 30
0.0
  0
SEQEND
  5
45F
  8
DATA
  6
CONTINUOUS
 62
     7
  0
ARC
  5
177
  8
DATA
  6
CONTINUOUS
 62
     7
 10
-24.43019608121821
 20
77.515624999897867
 30
0.0
 40
4.5156249999999956
 50
213.8550261282937
 51
326.14497387170621
  0
ARC
  5
178
  8
DATA
  6
CONTINUOUS
 62
     7
 10
-3.069803919420877
 20
77.515624999897867
 30
0.0
 40
4.5156249999999831
 50
213.85502612829379
 51
326.14497387170621
  0
CIRCLE
  5
179
  8
DATA
  6
CONTINUOUS
 62
     7
 10
-4.5774739869495686
 20
232.4281248636328
 30
0.0
 40
3.4999999999999849
  0
CIRCLE
  5
17A
  8
DATA
  6
CONTINUOUS
 62
     7
 10
-4.5774739869495686
 20
232.4281248636328
 30
0.0
 40
0.5
  0
LINE
  5
17B
  8
DATA
  6
CONTINUOUS
 62
     7
 10
-30.456380338818221
 20
225.88658844491491
 30
0.0
 11
-30.456380338818221
 21
238.88658844491491
 31
0.0
  0
LINE
  5
17C
  8
DATA
  6
CONTINUOUS
 62
     7
 10
-30.456380338818221
 20
225.88658844491491
 30
0.0
 11
-13.756380338818049
 21
225.88658844491491
 31
0.0
  0
LINE
  5
17D
  8
DATA
  6
CONTINUOUS
 62
     7
 10
-13.756380338818049
 20
225.88658844491491
 30
0.0
 11
-13.756380338818049
 21
238.88658844491491
 31
0.0
  0
LINE
  5
17E
  8
DATA
  6
CONTINUOUS
 62
     7
 10
-30.456380338818221
 20
238.88658844491491
 30
0.0
 11
-13.756380338818049
 21
238.88658844491491
 31
0.0
  0
LINE
  5
17F
  8
DATA
  6
CONTINUOUS
 62
     7
 10
-28.456380338818221
 20
227.88658844491491
 30
0.0
 11
-15.756380338818101
 21
227.88658844491491
 31
0.0
  0
LINE
  5
180
  8
DATA
  6
CONTINUOUS
 62
     7
 10
-15.756380338818101
 20
227.88658844491491
 30
0.0
 11
-15.756380338818101
 21
235.13658844491479
 31
0.0
  0
LINE
  5
181
  8
DATA
  6
CONTINUOUS
 62
     7
 10
-28.456380338818221
 20
227.88658844491491
 30
0.0
 11
-28.456380338818221
 21
235.13658844491479
 31
0.0
  0
LINE
  5
182
  8
DATA
  6
CONTINUOUS
 62
     7
 10
-28.456380338818221
 20
235.13658844491479
 30
0.0
 11
-25.456380338818182
 21
235.13658844491479
 31
0.0
  0
LINE
  5
183
  8
DATA
  6
CONTINUOUS
 62
     7
 10
-18.756380338818129
 20
235.13658844491479
 30
0.0
 11
-15.756380338818101
 21
235.13658844491479
 31
0.0
  0
LINE
  5
184
  8
DATA
  6
CONTINUOUS
 62
     7
 10
-18.756380338818129
 20
235.13658844491479
 30
0.0
 11
-18.756380338818129
 21
238.88658844491491
 31
0.0
  0
LINE
  5
185
  8
DATA
  6
CONTINUOUS
 62
     7
 10
-25.456380338818182
 20
235.13658844491479
 30
0.0
 11
-25.456380338818182
 21
238.88658844491491
 31
0.0
  0
LINE
  5
186
  8
DATA
  6
CONTINUOUS
 62
     7
 10
-13.756380338818049
 20
237.98658844491959
 30
0.0
 11
-18.756380338818129
 21
237.98658844491959
 31
0.0
  0
LINE
  5
187
  8
DATA
  6
CONTINUOUS
 62
     7
 10
-25.456380338818182
 20
237.98658844491959
 30
0.0
 11
-30.456380338818221
 21
237.98658844491959
 31
0.0
  0
TEXT
  5
188
  8
DATA
 62
     7
 10
-4.5691838861811771
 20
245.1426235942034
 30
0.0
 40
2.8097509765624999
  1
5V
 50
180.0
 41
0.7
 11
-4.5691838861811771
 21
242.3328726176409
 31
0.0
 73
     3
  0
TEXT
  5
189
  8
DATA
 62
     7
 10
-16.97222306295728
 20
245.15852940107391
 30
0.0
 40
2.8097509765624999
  1
CAT-5
 50
180.0
 41
0.7
 11
-16.97222306295728
 21
242.34877842451141
 31
0.0
 73
     3
  0
LINE
  5
18A
  8
DATA
  6
CONTINUOUS
 62
     7
 10
0.7600720370559487
 20
114.74999999969739
 30
0.0
 11
0.7600720370559487
 21
118.74999999969739
 31
0.0
  0
LINE
  5
18B
  8
DATA
  6
CONTINUOUS
 62
     7
 10
-3.9164651433801221
 20
114.74999999969739
 30
0.0
 11
-3.9164651433801221
 21
118.74999999969739
 31
0.0
  0
LINE
  5
18C
  8
DATA
  6
CONTINUOUS
 62
     7
 10
-24.239927962944449
 20
114.74999999969739
 30
0.0
 11
-24.239927962944449
 21
118.74999999969739
 31
0.0
  0
LINE
  5
18D
  8
DATA
  6
CONTINUOUS
 62
     7
 10
-28.916465143380531
 20
114.74999999969739
 30
0.0
 11
-28.916465143380531
 21
118.74999999969739
 31
0.0
  0
LINE
  5
18E
  8
DATA
  6
CONTINUOUS
 62
     7
 10
-5.6594981985364816
 20
114.74999999969739
 30
0.0
 11
-5.6594981985364816
 21
118.74999999969739
 31
0.0
  0
LINE
  5
18F
  8
DATA
  6
CONTINUOUS
 62
     7
 10
-22.559498198536598
 20
114.74999999969739
 30
0.0
 11
-22.559498198536598
 21
118.74999999969739
 31
0.0
  0
ARC
  5
190
  8
DATA
  6
CONTINUOUS
 62
     7
 10
33.984374999680632
 20
124.5418592877724
 30
0.0
 40
4.5156249999999876
 50
303.85502612829418
 51
56.144973871705957
  0
ARC
  5
191
  8
DATA
  6
CONTINUOUS
 62
     7
 10
33.984374999680632
 20
205.95814071162249
 30
0.0
 40
4.5156250000000169
 50
303.8550261282939
 51
56.144973871705822
  0
ARC
  5
192
  8
DATA
  6
CONTINUOUS
 62
     7
 10
-24.43019608121821
 20
246.4843749992497
 30
0.0
 40
4.515624999999992
 50
33.855026128293943
 51
146.1449738717061
  0
ARC
  5
193
  8
DATA
  6
CONTINUOUS
 62
     7
 10
-3.069803919420877
 20
246.4843749992497
 30
0.0
 40
4.5156249999999796
 50
33.855026128294043
 51
146.14497387170599
  0
TEXT
  5
194
  8
DATA
 62
     7
 10
-22.975024751544019
 20
51.580671185091731
 30
0.0
 40
4.072102864583333
  1
センダー
 41
0.7
 11
-22.975024751544019
 21
55.65277404967506
 31
0.0
 73
     3
  0
LINE
  5
195
  8
DATA
  6
CONTINUOUS
 62
     7
 10
23.703649777117651
 20
114.74999999969739
 30
0.0
 11
23.703649777117651
 21
118.74999999969739
 31
0.0
  0
LINE
  5
196
  8
DATA
  6
CONTINUOUS
 62
     7
 10
19.027112596681519
 20
114.74999999969739
 30
0.0
 11
19.027112596681519
 21
118.74999999969739
 31
0.0
  0
LINE
  5
197
  8
DATA
  6
CONTINUOUS
 62
     7
 10
16.87499999978051
 20
114.74999999969739
 30
0.0
 11
16.87499999978051
 21
118.74999999969739
 31
0.0
  0
LINE
  5
198
  8
DATA
  6
CONTINUOUS
 62
     7
 10
26.124999999780599
 20
118.74999999969739
 30
0.0
 11
26.124999999780599
 21
114.74999999969739
 31
0.0
  0
ARC
  5
199
  8
DATA
  6
CONTINUOUS
 62
     7
 10
-29.750000000319609
 20
97.499999999897597
 30
0.0
 40
1.4999999999999709
 50
90.0
 51
180.0
  0
ARC
  5
19A
  8
DATA
  6
CONTINUOUS
 62
     7
 10
2.249999999680512
 20
97.499999999897597
 30
0.0
 40
1.5
 50
0.0
 51
90.0
  0
ARC
  5
19B
  8
DATA
  6
CONTINUOUS
 62
     7
 10
-29.750000000319609
 20
226.4999999994572
 30
0.0
 40
1.5
 50
180.0
 51
270.0
  0
ARC
  5
19C
  8
DATA
  6
CONTINUOUS
 62
     7
 10
2.249999999680512
 20
226.4999999994572
 30
0.0
 40
1.5
 50
270.0
 51
0.0
  0
LINE
  5
19D
  8
DATA
  6
CONTINUOUS
 62
     7
 10
0.7600720370559487
 20
114.74999999969739
 30
0.0
 11
-3.9164651433801221
 21
114.74999999969739
 31
0.0
  0
LINE
  5
19E
  8
DATA
  6
CONTINUOUS
 62
     7
 10
-5.6594981985364816
 20
114.74999999969739
 30
0.0
 11
-22.559498198536598
 21
114.74999999969739
 31
0.0
  0
LINE
  5
19F
  8
DATA
  6
CONTINUOUS
 62
     7
 10
-24.239927962944449
 20
114.74999999969739
 30
0.0
 11
-28.916465143380531
 21
114.74999999969739
 31
0.0
  0
LINE
  5
1A0
  8
DATA
  6
CONTINUOUS
 62
     7
 10
26.124999999780599
 20
114.74999999969739
 30
0.0
 11
16.87499999978051
 21
114.74999999969739
 31
0.0
  0
LINE
  5
1A1
  8
DATA
  6
CONTINUOUS
 62
     7
 10
-25.000000000100641
 20
49.99999999954241
 30
0.0
 11
-0.0000000001006413
 21
49.99999999954241
 31
0.0
  0
LINE
  5
1A2
  8
DATA
  6
CONTINUOUS
 62
     7
 10
87.500000000056204
 20
118.74999999939961
 30
0.0
 11
87.500000000056204
 21
211.74999999939979
 31
0.0
  0
LINE
  5
1A3
  8
DATA
  6
CONTINUOUS
 62
     7
 10
122.5000000000562
 20
118.74999999939961
 30
0.0
 11
87.500000000056204
 21
118.74999999939961
 31
0.0
  0
LINE
  5
1A4
  8
DATA
  6
CONTINUOUS
 62
     7
 10
122.5000000000562
 20
211.74999999939979
 30
0.0
 11
122.5000000000562
 21
118.74999999939961
 31
0.0
  0
LINE
  5
1A5
  8
DATA
  6
CONTINUOUS
 62
     7
 10
87.500000000056204
 20
211.74999999939979
 30
0.0
 11
122.5000000000562
 21
211.74999999939979
 31
0.0
  0
LINE
  5
1A6
  8
DATA
  6
CONTINUOUS
 62
     7
 10
131.2260204448996
 20
118.74999999939961
 30
0.0
 11
131.2260204448996
 21
211.74999999939979
 31
0.0
  0
LINE
  5
1A7
  8
DATA
  6
CONTINUOUS
 62
     7
 10
155.22602044489949
 20
118.74999999939961
 30
0.0
 11
131.2260204448996
 21
118.74999999939961
 31
0.0
  0
LINE
  5
1A8
  8
DATA
  6
CONTINUOUS
 62
     7
 10
155.22602044489949
 20
211.74999999939979
 30
0.0
 11
155.22602044489949
 21
118.74999999939961
 31
0.0
  0
LINE
  5
1A9
  8
DATA
  6
CONTINUOUS
 62
     7
 10
131.2260204448996
 20
211.74999999939979
 30
0.0
 11
155.22602044489949
 21
211.74999999939979
 31
0.0
  0
TEXT
  5
1AA
  8
DATA
 62
     7
 10
111.10995378716009
 20
244.06444999965831
 30
0.0
 40
2.8097509765624999
  1
VGA Out
 50
180.0
 41
0.7
 11
111.10995378716009
 21
241.2546990230959
 31
0.0
 73
     3
  0
ARC
  5
1AB
  8
DATA
  6
CONTINUOUS
 62
     7
 10
152.7103954447995
 20
124.54185928747459
 30
0.0
 40
4.5156250000000009
 50
303.85502612829413
 51
56.144973871706121
  0
ARC
  5
1AC
  8
DATA
  6
CONTINUOUS
 62
     7
 10
152.7103954447995
 20
205.9581407113248
 30
0.0
 40
4.5156250000000169
 50
303.8550261282939
 51
56.14497387170573
  0
LINE
  5
1AD
  8
DATA
  6
CONTINUOUS
 62
     7
 10
87.500000000056204
 20
248.9999999991546
 30
0.0
 11
87.500000000056204
 21
226.4999999991548
 31
0.0
  0
LINE
  5
1AE
  8
DATA
  6
CONTINUOUS
 62
     7
 10
122.5000000000562
 20
248.9999999991546
 30
0.0
 11
111.5000000000562
 21
248.9999999991546
 31
0.0
  0
LINE
  5
1AF
  8
DATA
  6
CONTINUOUS
 62
     7
 10
98.500000000056232
 20
248.9999999991546
 30
0.0
 11
87.500000000056204
 21
248.9999999991546
 31
0.0
  0
LINE
  5
1B0
  8
DATA
  6
CONTINUOUS
 62
     7
 10
122.5000000000562
 20
226.4999999991548
 30
0.0
 11
122.5000000000562
 21
248.9999999991546
 31
0.0
  0
LINE
  5
1B1
  8
DATA
  6
CONTINUOUS
 62
     7
 10
89.000000000056204
 20
224.9999999991548
 30
0.0
 11
121.0000000000562
 21
224.9999999991548
 31
0.0
  0
LINE
  5
1B2
  8
DATA
  6
CONTINUOUS
 62
     7
 10
87.500000000056204
 20
247.9999999991546
 30
0.0
 11
122.5000000000562
 21
247.9999999991546
 31
0.0
  0
LINE
  5
1B3
  8
DATA
  6
CONTINUOUS
 62
     7
 10
98.500000000056232
 20
248.9999999991546
 30
0.0
 11
98.500000000056232
 21
247.9999999991546
 31
0.0
  0
LINE
  5
1B4
  8
DATA
  6
CONTINUOUS
 62
     7
 10
111.5000000000562
 20
247.9999999991546
 30
0.0
 11
111.5000000000562
 21
248.9999999991546
 31
0.0
  0
POLYLINE
  5
1B5
  8
DATA
  6
CONTINUOUS
 62
     7
 66
     1
 10
0.0
 20
0.0
 30
0.0
 70
   129
  0
VERTEX
  5
460
  8
DATA
  6
CONTINUOUS
 62
     7
 10
107.70897235723091
 20
233.97518133634719
 30
0.0
 42
-0.4142135623730951
  0
VERTEX
  5
461
  8
DATA
  6
CONTINUOUS
 62
     7
 10
108.20897235723091
 20
234.47518133634719
 30
0.0
 42
-0.4142135623730951
  0
VERTEX
  5
462
  8
DATA
  6
CONTINUOUS
 62
     7
 10
108.70897235723091
 20
233.97518133634719
 30
0.0
 42
-0.4142135623730951
  0
VERTEX
  5
463
  8
DATA
  6
CONTINUOUS
 62
     7
 10
108.20897235723091
 20
233.47518133634719
 30
0.0
 42
-0.4142135623730951
  0
VERTEX
  5
464
  8
DATA
  6
CONTINUOUS
 62
     7
 10
107.70897235723091
 20
233.97518133634719
 30
0.0
  0
SEQEND
  5
465
  8
DATA
  6
CONTINUOUS
 62
     7
  0
LINE
  5
1BC
  8
DATA
  6
CONTINUOUS
 62
     7
 10
98.27891824328924
 20
229.8051813363472
 30
0.0
 11
111.1789182432892
 21
229.8051813363472
 31
0.0
  0
LINE
  5
1BD
  8
DATA
  6
CONTINUOUS
 62
     7
 10
98.655488243289284
 20
238.14518133634721
 30
0.0
 11
110.80235824328931
 21
238.14518133634721
 31
0.0
  0
POLYLINE
  5
1BE
  8
DATA
  6
CONTINUOUS
 62
     7
 66
     1
 10
0.0
 20
0.0
 30
0.0
 70
   129
  0
VERTEX
  5
466
  8
DATA
  6
CONTINUOUS
 62
     7
 10
105.4289723572309
 20
233.97518133634719
 30
0.0
 42
-0.4142135623730951
  0
VERTEX
  5
467
  8
DATA
  6
CONTINUOUS
 62
     7
 10
105.9289723572309
 20
234.47518133634719
 30
0.0
 42
-0.4142135623730955
  0
VERTEX
  5
468
  8
DATA
  6
CONTINUOUS
 62
     7
 10
106.4289723572309
 20
233.97518133634719
 30
0.0
 42
-0.4142135623730951
  0
VERTEX
  5
469
  8
DATA
  6
CONTINUOUS
 62
     7
 10
105.9289723572309
 20
233.47518133634719
 30
0.0
 42
-0.4142135623730945
  0
VERTEX
  5
46A
  8
DATA
  6
CONTINUOUS
 62
     7
 10
105.4289723572309
 20
233.97518133634719
 30
0.0
  0
SEQEND
  5
46B
  8
DATA
  6
CONTINUOUS
 62
     7
  0
POLYLINE
  5
1C5
  8
DATA
  6
CONTINUOUS
 62
     7
 66
     1
 10
0.0
 20
0.0
 30
0.0
 70
   129
  0
VERTEX
  5
46C
  8
DATA
  6
CONTINUOUS
 62
     7
 10
99.926903812904811
 20
235.95518133634721
 30
0.0
 42
-0.4142135623731117
  0
VERTEX
  5
46D
  8
DATA
  6
CONTINUOUS
 62
     7
 10
100.4269038129048
 20
236.45518133634729
 30
0.0
 42
-0.4142135623730764
  0
VERTEX
  5
46E
  8
DATA
  6
CONTINUOUS
 62
     7
 10
100.9269038129048
 20
235.95518133634721
 30
0.0
 42
-0.4142135623731117
  0
VERTEX
  5
46F
  8
DATA
  6
CONTINUOUS
 62
     7
 10
100.4269038129048
 20
235.45518133634721
 30
0.0
 42
-0.4142135623730804
  0
VERTEX
  5
470
  8
DATA
  6
CONTINUOUS
 62
     7
 10
99.926903812904811
 20
235.95518133634721
 30
0.0
  0
SEQEND
  5
471
  8
DATA
  6
CONTINUOUS
 62
     7
  0
POLYLINE
  5
1CC
  8
DATA
  6
CONTINUOUS
 62
     7
 66
     1
 10
0.0
 20
0.0
 30
0.0
 70
   129
  0
VERTEX
  5
472
  8
DATA
  6
CONTINUOUS
 62
     7
 10
102.2169038129048
 20
235.95518133634721
 30
0.0
 42
-0.4142135623731117
  0
VERTEX
  5
473
  8
DATA
  6
CONTINUOUS
 62
     7
 10
102.7169038129048
 20
236.45518133634729
 30
0.0
 42
-0.4142135623730779
  0
VERTEX
  5
474
  8
DATA
  6
CONTINUOUS
 62
     7
 10
103.2169038129048
 20
235.95518133634721
 30
0.0
 42
-0.4142135623731117
  0
VERTEX
  5
475
  8
DATA
  6
CONTINUOUS
 62
     7
 10
102.7169038129048
 20
235.45518133634721
 30
0.0
 42
-0.4142135623730789
  0
VERTEX
  5
476
  8
DATA
  6
CONTINUOUS
 62
     7
 10
102.2169038129048
 20
235.95518133634721
 30
0.0
  0
SEQEND
  5
477
  8
DATA
  6
CONTINUOUS
 62
     7
  0
POLYLINE
  5
1D3
  8
DATA
  6
CONTINUOUS
 62
     7
 66
     1
 10
0.0
 20
0.0
 30
0.0
 70
   129
  0
VERTEX
  5
478
  8
DATA
  6
CONTINUOUS
 62
     7
 10
104.5069038129048
 20
235.95518133634721
 30
0.0
 42
-0.4142135623731117
  0
VERTEX
  5
479
  8
DATA
  6
CONTINUOUS
 62
     7
 10
105.0069038129048
 20
236.45518133634729
 30
0.0
 42
-0.4142135623730789
  0
VERTEX
  5
47A
  8
DATA
  6
CONTINUOUS
 62
     7
 10
105.5069038129048
 20
235.95518133634721
 30
0.0
 42
-0.4142135623731117
  0
VERTEX
  5
47B
  8
DATA
  6
CONTINUOUS
 62
     7
 10
105.0069038129048
 20
235.45518133634721
 30
0.0
 42
-0.4142135623730779
  0
VERTEX
  5
47C
  8
DATA
  6
CONTINUOUS
 62
     7
 10
104.5069038129048
 20
235.95518133634721
 30
0.0
  0
SEQEND
  5
47D
  8
DATA
  6
CONTINUOUS
 62
     7
  0
POLYLINE
  5
1DA
  8
DATA
  6
CONTINUOUS
 62
     7
 66
     1
 10
0.0
 20
0.0
 30
0.0
 70
   129
  0
VERTEX
  5
47E
  8
DATA
  6
CONTINUOUS
 62
     7
 10
106.7869038129049
 20
235.95518133634721
 30
0.0
 42
-0.4142135623731117
  0
VERTEX
  5
47F
  8
DATA
  6
CONTINUOUS
 62
     7
 10
107.2869038129049
 20
236.45518133634729
 30
0.0
 42
-0.41421356237308
  0
VERTEX
  5
480
  8
DATA
  6
CONTINUOUS
 62
     7
 10
107.7869038129049
 20
235.95518133634721
 30
0.0
 42
-0.4142135623731117
  0
VERTEX
  5
481
  8
DATA
  6
CONTINUOUS
 62
     7
 10
107.2869038129049
 20
235.45518133634721
 30
0.0
 42
-0.4142135623730768
  0
VERTEX
  5
482
  8
DATA
  6
CONTINUOUS
 62
     7
 10
106.7869038129049
 20
235.95518133634721
 30
0.0
  0
SEQEND
  5
483
  8
DATA
  6
CONTINUOUS
 62
     7
  0
POLYLINE
  5
1E1
  8
DATA
  6
CONTINUOUS
 62
     7
 66
     1
 10
0.0
 20
0.0
 30
0.0
 70
   129
  0
VERTEX
  5
484
  8
DATA
  6
CONTINUOUS
 62
     7
 10
99.926903812904811
 20
231.9951813363472
 30
0.0
 42
-0.4142135623730951
  0
VERTEX
  5
485
  8
DATA
  6
CONTINUOUS
 62
     7
 10
100.4269038129048
 20
232.4951813363472
 30
0.0
 42
-0.4142135623730955
  0
VERTEX
  5
486
  8
DATA
  6
CONTINUOUS
 62
     7
 10
100.9269038129048
 20
231.9951813363472
 30
0.0
 42
-0.4142135623730951
  0
VERTEX
  5
487
  8
DATA
  6
CONTINUOUS
 62
     7
 10
100.4269038129048
 20
231.4951813363472
 30
0.0
 42
-0.4142135623730946
  0
VERTEX
  5
488
  8
DATA
  6
CONTINUOUS
 62
     7
 10
99.926903812904811
 20
231.9951813363472
 30
0.0
  0
SEQEND
  5
489
  8
DATA
  6
CONTINUOUS
 62
     7
  0
POLYLINE
  5
1E8
  8
DATA
  6
CONTINUOUS
 62
     7
 66
     1
 10
0.0
 20
0.0
 30
0.0
 70
   129
  0
VERTEX
  5
48A
  8
DATA
  6
CONTINUOUS
 62
     7
 10
102.2169038129048
 20
231.9951813363472
 30
0.0
 42
-0.4142135623730951
  0
VERTEX
  5
48B
  8
DATA
  6
CONTINUOUS
 62
     7
 10
102.7169038129048
 20
232.4951813363472
 30
0.0
 42
-0.4142135623730955
  0
VERTEX
  5
48C
  8
DATA
  6
CONTINUOUS
 62
     7
 10
103.2169038129048
 20
231.9951813363472
 30
0.0
 42
-0.4142135623730951
  0
VERTEX
  5
48D
  8
DATA
  6
CONTINUOUS
 62
     7
 10
102.7169038129048
 20
231.4951813363472
 30
0.0
 42
-0.4142135623730945
  0
VERTEX
  5
48E
  8
DATA
  6
CONTINUOUS
 62
     7
 10
102.2169038129048
 20
231.9951813363472
 30
0.0
  0
SEQEND
  5
48F
  8
DATA
  6
CONTINUOUS
 62
     7
  0
POLYLINE
  5
1EF
  8
DATA
  6
CONTINUOUS
 62
     7
 66
     1
 10
0.0
 20
0.0
 30
0.0
 70
   129
  0
VERTEX
  5
490
  8
DATA
  6
CONTINUOUS
 62
     7
 10
104.5069038129048
 20
231.9951813363472
 30
0.0
 42
-0.4142135623730951
  0
VERTEX
  5
491
  8
DATA
  6
CONTINUOUS
 62
     7
 10
105.0069038129048
 20
232.4951813363472
 30
0.0
 42
-0.4142135623730955
  0
VERTEX
  5
492
  8
DATA
  6
CONTINUOUS
 62
     7
 10
105.5069038129048
 20
231.9951813363472
 30
0.0
 42
-0.4142135623730951
  0
VERTEX
  5
493
  8
DATA
  6
CONTINUOUS
 62
     7
 10
105.0069038129048
 20
231.4951813363472
 30
0.0
 42
-0.4142135623730945
  0
VERTEX
  5
494
  8
DATA
  6
CONTINUOUS
 62
     7
 10
104.5069038129048
 20
231.9951813363472
 30
0.0
  0
SEQEND
  5
495
  8
DATA
  6
CONTINUOUS
 62
     7
  0
POLYLINE
  5
1F6
  8
DATA
  6
CONTINUOUS
 62
     7
 66
     1
 10
0.0
 20
0.0
 30
0.0
 70
   129
  0
VERTEX
  5
496
  8
DATA
  6
CONTINUOUS
 62
     7
 10
106.7869038129049
 20
231.9951813363472
 30
0.0
 42
-0.4142135623730951
  0
VERTEX
  5
497
  8
DATA
  6
CONTINUOUS
 62
     7
 10
107.2869038129049
 20
232.4951813363472
 30
0.0
 42
-0.4142135623730955
  0
VERTEX
  5
498
  8
DATA
  6
CONTINUOUS
 62
     7
 10
107.7869038129049
 20
231.9951813363472
 30
0.0
 42
-0.4142135623730951
  0
VERTEX
  5
499
  8
DATA
  6
CONTINUOUS
 62
     7
 10
107.2869038129049
 20
231.4951813363472
 30
0.0
 42
-0.4142135623730945
  0
VERTEX
  5
49A
  8
DATA
  6
CONTINUOUS
 62
     7
 10
106.7869038129049
 20
231.9951813363472
 30
0.0
  0
SEQEND
  5
49B
  8
DATA
  6
CONTINUOUS
 62
     7
  0
POLYLINE
  5
1FD
  8
DATA
  6
CONTINUOUS
 62
     7
 66
     1
 10
0.0
 20
0.0
 30
0.0
 70
   129
  0
VERTEX
  5
49C
  8
DATA
  6
CONTINUOUS
 62
     7
 10
98.568972357230933
 20
233.97518133634719
 30
0.0
 42
-0.4142135623730951
  0
VERTEX
  5
49D
  8
DATA
  6
CONTINUOUS
 62
     7
 10
99.068972357230933
 20
234.47518133634719
 30
0.0
 42
-0.4142135623730955
  0
VERTEX
  5
49E
  8
DATA
  6
CONTINUOUS
 62
     7
 10
99.568972357230933
 20
233.97518133634719
 30
0.0
 42
-0.4142135623730951
  0
VERTEX
  5
49F
  8
DATA
  6
CONTINUOUS
 62
     7
 10
99.068972357230933
 20
233.47518133634719
 30
0.0
 42
-0.4142135623730945
  0
VERTEX
  5
4A0
  8
DATA
  6
CONTINUOUS
 62
     7
 10
98.568972357230933
 20
233.97518133634719
 30
0.0
  0
SEQEND
  5
4A1
  8
DATA
  6
CONTINUOUS
 62
     7
  0
POLYLINE
  5
204
  8
DATA
  6
CONTINUOUS
 62
     7
 66
     1
 10
0.0
 20
0.0
 30
0.0
 70
   129
  0
VERTEX
  5
4A2
  8
DATA
  6
CONTINUOUS
 62
     7
 10
100.84897235723081
 20
233.97518133634719
 30
0.0
 42
-0.4142135623730951
  0
VERTEX
  5
4A3
  8
DATA
  6
CONTINUOUS
 62
     7
 10
101.34897235723091
 20
234.47518133634719
 30
0.0
 42
-0.4142135623730955
  0
VERTEX
  5
4A4
  8
DATA
  6
CONTINUOUS
 62
     7
 10
101.84897235723081
 20
233.97518133634719
 30
0.0
 42
-0.4142135623730951
  0
VERTEX
  5
4A5
  8
DATA
  6
CONTINUOUS
 62
     7
 10
101.34897235723091
 20
233.47518133634719
 30
0.0
 42
-0.4142135623730945
  0
VERTEX
  5
4A6
  8
DATA
  6
CONTINUOUS
 62
     7
 10
100.84897235723081
 20
233.97518133634719
 30
0.0
  0
SEQEND
  5
4A7
  8
DATA
  6
CONTINUOUS
 62
     7
  0
POLYLINE
  5
20B
  8
DATA
  6
CONTINUOUS
 62
     7
 66
     1
 10
0.0
 20
0.0
 30
0.0
 70
   129
  0
VERTEX
  5
4A8
  8
DATA
  6
CONTINUOUS
 62
     7
 10
103.1389723572309
 20
233.97518133634719
 30
0.0
 42
-0.4142135623730784
  0
VERTEX
  5
4A9
  8
DATA
  6
CONTINUOUS
 62
     7
 10
103.6389723572309
 20
234.47518133634719
 30
0.0
 42
-0.4142135623731076
  0
VERTEX
  5
4AA
  8
DATA
  6
CONTINUOUS
 62
     7
 10
104.1389723572309
 20
233.97518133634719
 30
0.0
 42
-0.4142135623730784
  0
VERTEX
  5
4AB
  8
DATA
  6
CONTINUOUS
 62
     7
 10
103.6389723572309
 20
233.47518133634719
 30
0.0
 42
-0.4142135623731159
  0
VERTEX
  5
4AC
  8
DATA
  6
CONTINUOUS
 62
     7
 10
103.1389723572309
 20
233.97518133634719
 30
0.0
  0
SEQEND
  5
4AD
  8
DATA
  6
CONTINUOUS
 62
     7
  0
POLYLINE
  5
212
  8
DATA
  6
CONTINUOUS
 62
     7
 66
     1
 10
0.0
 20
0.0
 30
0.0
 70
   129
  0
VERTEX
  5
4AE
  8
DATA
  6
CONTINUOUS
 62
     7
 10
109.0769038129048
 20
235.95518133634721
 30
0.0
 42
-0.4142135623731117
  0
VERTEX
  5
4AF
  8
DATA
  6
CONTINUOUS
 62
     7
 10
109.5769038129048
 20
236.45518133634729
 30
0.0
 42
-0.4142135623730806
  0
VERTEX
  5
4B0
  8
DATA
  6
CONTINUOUS
 62
     7
 10
110.0769038129048
 20
235.95518133634721
 30
0.0
 42
-0.4142135623731117
  0
VERTEX
  5
4B1
  8
DATA
  6
CONTINUOUS
 62
     7
 10
109.5769038129048
 20
235.45518133634721
 30
0.0
 42
-0.4142135623730764
  0
VERTEX
  5
4B2
  8
DATA
  6
CONTINUOUS
 62
     7
 10
109.0769038129048
 20
235.95518133634721
 30
0.0
  0
SEQEND
  5
4B3
  8
DATA
  6
CONTINUOUS
 62
     7
  0
POLYLINE
  5
219
  8
DATA
  6
CONTINUOUS
 62
     7
 66
     1
 10
0.0
 20
0.0
 30
0.0
 70
   129
  0
VERTEX
  5
4B4
  8
DATA
  6
CONTINUOUS
 62
     7
 10
109.0769038129048
 20
231.9951813363472
 30
0.0
 42
-0.4142135623730951
  0
VERTEX
  5
4B5
  8
DATA
  6
CONTINUOUS
 62
     7
 10
109.5769038129048
 20
232.4951813363472
 30
0.0
 42
-0.4142135623730951
  0
VERTEX
  5
4B6
  8
DATA
  6
CONTINUOUS
 62
     7
 10
110.0769038129048
 20
231.9951813363472
 30
0.0
 42
-0.4142135623730951
  0
VERTEX
  5
4B7
  8
DATA
  6
CONTINUOUS
 62
     7
 10
109.5769038129048
 20
231.4951813363472
 30
0.0
 42
-0.4142135623730951
  0
VERTEX
  5
4B8
  8
DATA
  6
CONTINUOUS
 62
     7
 10
109.0769038129048
 20
231.9951813363472
 30
0.0
  0
SEQEND
  5
4B9
  8
DATA
  6
CONTINUOUS
 62
     7
  0
ARC
  5
220
  8
DATA
  6
CONTINUOUS
 62
     7
 10
98.655488243289284
 20
236.64518133634721
 30
0.0
 40
1.499998001665289
 50
90.0
 51
170.00007445039861
  0
ARC
  5
221
  8
DATA
  6
CONTINUOUS
 62
     7
 10
98.27891824328924
 20
231.8051813363472
 30
0.0
 40
2.0
 50
180.0
 51
270.0
  0
LINE
  5
222
  8
DATA
  6
CONTINUOUS
 62
     7
 10
96.278918243289255
 20
231.8051813363472
 30
0.0
 11
97.178268243289295
 21
236.9056513363472
 31
0.0
  0
ARC
  5
223
  8
DATA
  6
CONTINUOUS
 62
     7
 10
110.80235824328931
 20
236.64518133634721
 30
0.0
 40
1.4999999999999749
 50
9.9999255495999915
 51
90.0
  0
ARC
  5
224
  8
DATA
  6
CONTINUOUS
 62
     7
 10
111.1789182432892
 20
231.8051813363472
 30
0.0
 40
2.0
 50
270.0
 51
0.0
  0
LINE
  5
225
  8
DATA
  6
CONTINUOUS
 62
     7
 10
113.1789182432892
 20
231.8051813363472
 30
0.0
 11
112.2795682432893
 21
236.9056513363472
 31
0.0
  0
CIRCLE
  5
226
  8
DATA
  6
CONTINUOUS
 62
     7
 10
117.2602198886637
 20
233.99289102795609
 30
0.0
 40
1.1750000000001251
  0
POLYLINE
  5
227
  8
DATA
  6
CONTINUOUS
 62
     7
 66
     1
 10
0.0
 20
0.0
 30
0.0
 70
     1
  0
VERTEX
  5
4BA
  8
DATA
  6
CONTINUOUS
 62
     7
 10
117.2602198886637
 20
231.2928910279563
 30
0.0
  0
VERTEX
  5
4BB
  8
DATA
  6
CONTINUOUS
 62
     7
 10
114.92195129844571
 20
232.64289102795621
 30
0.0
  0
VERTEX
  5
4BC
  8
DATA
  6
CONTINUOUS
 62
     7
 10
114.92195129844571
 20
235.34289102795611
 30
0.0
  0
VERTEX
  5
4BD
  8
DATA
  6
CONTINUOUS
 62
     7
 10
117.2602198886637
 20
236.69289102795619
 30
0.0
  0
VERTEX
  5
4BE
  8
DATA
  6
CONTINUOUS
 62
     7
 10
119.59848847888181
 20
235.34289102795611
 30
0.0
  0
VERTEX
  5
4BF
  8
DATA
  6
CONTINUOUS
 62
     7
 10
119.59848847888181
 20
232.64289102795621
 30
0.0
  0
SEQEND
  5
4C0
  8
DATA
  6
CONTINUOUS
 62
     7
  0
CIRCLE
  5
230
  8
DATA
  6
CONTINUOUS
 62
     7
 10
92.260219888663372
 20
233.99289102795609
 30
0.0
 40
1.1750000000001251
  0
POLYLINE
  5
231
  8
DATA
  6
CONTINUOUS
 62
     7
 66
     1
 10
0.0
 20
0.0
 30
0.0
 70
     1
  0
VERTEX
  5
4C1
  8
DATA
  6
CONTINUOUS
 62
     7
 10
92.260219888663372
 20
231.2928910279563
 30
0.0
  0
VERTEX
  5
4C2
  8
DATA
  6
CONTINUOUS
 62
     7
 10
89.921951298445435
 20
232.64289102795621
 30
0.0
  0
VERTEX
  5
4C3
  8
DATA
  6
CONTINUOUS
 62
     7
 10
89.921951298445435
 20
235.34289102795611
 30
0.0
  0
VERTEX
  5
4C4
  8
DATA
  6
CONTINUOUS
 62
     7
 10
92.260219888663372
 20
236.69289102795619
 30
0.0
  0
VERTEX
  5
4C5
  8
DATA
  6
CONTINUOUS
 62
     7
 10
94.598488478881436
 20
235.34289102795611
 30
0.0
  0
VERTEX
  5
4C6
  8
DATA
  6
CONTINUOUS
 62
     7
 10
94.598488478881436
 20
232.64289102795621
 30
0.0
  0
SEQEND
  5
4C7
  8
DATA
  6
CONTINUOUS
 62
     7
  0
ARC
  5
23A
  8
DATA
  6
CONTINUOUS
 62
     7
 10
94.319803919157636
 20
246.4843749991546
 30
0.0
 40
4.515625
 50
33.855026128294092
 51
146.1449738717059
  0
ARC
  5
23B
  8
DATA
  6
CONTINUOUS
 62
     7
 10
115.6801960809548
 20
246.4843749991546
 30
0.0
 40
4.515625
 50
33.855026128294092
 51
146.1449738717059
  0
LINE
  5
23C
  8
DATA
  6
CONTINUOUS
 62
     7
 10
87.500000000056204
 20
74.999999999895707
 30
0.0
 11
87.500000000056204
 21
97.499999999895053
 31
0.0
  0
LINE
  5
23D
  8
DATA
  6
CONTINUOUS
 62
     7
 10
122.5000000000562
 20
74.999999999895707
 30
0.0
 11
111.5000000000562
 21
74.999999999895707
 31
0.0
  0
LINE
  5
23E
  8
DATA
  6
CONTINUOUS
 62
     7
 10
98.500000000056232
 20
74.999999999895707
 30
0.0
 11
87.500000000056204
 21
74.999999999895707
 31
0.0
  0
LINE
  5
23F
  8
DATA
  6
CONTINUOUS
 62
     7
 10
122.5000000000562
 20
97.499999999895053
 30
0.0
 11
122.5000000000562
 21
74.999999999895707
 31
0.0
  0
LINE
  5
240
  8
DATA
  6
CONTINUOUS
 62
     7
 10
89.000000000056204
 20
98.999999999895053
 30
0.0
 11
121.0000000000562
 21
98.999999999895053
 31
0.0
  0
LINE
  5
241
  8
DATA
  6
CONTINUOUS
 62
     7
 10
87.500000000056204
 20
75.999999999895707
 30
0.0
 11
122.5000000000562
 21
75.999999999895707
 31
0.0
  0
LINE
  5
242
  8
DATA
  6
CONTINUOUS
 62
     7
 10
98.500000000056232
 20
74.999999999895707
 30
0.0
 11
98.500000000056232
 21
75.999999999895707
 31
0.0
  0
LINE
  5
243
  8
DATA
  6
CONTINUOUS
 62
     7
 10
111.5000000000562
 20
75.999999999895707
 30
0.0
 11
111.5000000000562
 21
74.999999999895707
 31
0.0
  0
LINE
  5
244
  8
DATA
  6
CONTINUOUS
 62
     7
 10
99.282530312601935
 20
98.755367088002814
 30
0.0
 11
99.282530312601935
 21
85.755367088003013
 31
0.0
  0
LINE
  5
245
  8
DATA
  6
CONTINUOUS
 62
     7
 10
99.282530312601935
 20
98.755367088002814
 30
0.0
 11
115.98253031260209
 21
98.755367088002814
 31
0.0
  0
LINE
  5
246
  8
DATA
  6
CONTINUOUS
 62
     7
 10
115.98253031260209
 20
98.755367088002814
 30
0.0
 11
115.98253031260209
 21
85.755367088003013
 31
0.0
  0
LINE
  5
247
  8
DATA
  6
CONTINUOUS
 62
     7
 10
99.282530312601935
 20
85.755367088003013
 30
0.0
 11
115.98253031260209
 21
85.755367088003013
 31
0.0
  0
LINE
  5
248
  8
DATA
  6
CONTINUOUS
 62
     7
 10
101.28253031260211
 20
96.755367088002828
 30
0.0
 11
113.98253031260199
 21
96.755367088002828
 31
0.0
  0
LINE
  5
249
  8
DATA
  6
CONTINUOUS
 62
     7
 10
113.98253031260199
 20
96.755367088002828
 30
0.0
 11
113.98253031260199
 21
89.505367088002913
 31
0.0
  0
LINE
  5
24A
  8
DATA
  6
CONTINUOUS
 62
     7
 10
101.28253031260211
 20
96.755367088002828
 30
0.0
 11
101.28253031260211
 21
89.505367088002913
 31
0.0
  0
LINE
  5
24B
  8
DATA
  6
CONTINUOUS
 62
     7
 10
101.28253031260211
 20
89.505367088002913
 30
0.0
 11
104.28253031260201
 21
89.505367088002913
 31
0.0
  0
LINE
  5
24C
  8
DATA
  6
CONTINUOUS
 62
     7
 10
110.98253031260199
 20
89.505367088002913
 30
0.0
 11
113.98253031260199
 21
89.505367088002913
 31
0.0
  0
LINE
  5
24D
  8
DATA
  6
CONTINUOUS
 62
     7
 10
110.98253031260199
 20
89.505367088002913
 30
0.0
 11
110.98253031260199
 21
85.755367088003013
 31
0.0
  0
LINE
  5
24E
  8
DATA
  6
CONTINUOUS
 62
     7
 10
104.28253031260201
 20
89.505367088002913
 30
0.0
 11
104.28253031260201
 21
85.755367088003013
 31
0.0
  0
LINE
  5
24F
  8
DATA
  6
CONTINUOUS
 62
     7
 10
115.98253031260209
 20
86.655367087998243
 30
0.0
 11
110.98253031260199
 21
86.655367087998243
 31
0.0
  0
LINE
  5
250
  8
DATA
  6
CONTINUOUS
 62
     7
 10
104.28253031260201
 20
86.655367087998243
 30
0.0
 11
99.282530312601935
 21
86.655367087998243
 31
0.0
  0
ARC
  5
251
  8
DATA
  6
CONTINUOUS
 62
     7
 10
94.319803919157636
 20
77.515625000102631
 30
0.0
 40
4.5156249999999627
 50
213.85502612829339
 51
326.1449738717065
  0
ARC
  5
252
  8
DATA
  6
CONTINUOUS
 62
     7
 10
115.6801960809548
 20
77.515625000102631
 30
0.0
 40
4.5156249999999636
 50
213.85502612829339
 51
326.1449738717065
  0
LINE
  5
253
  8
DATA
  6
CONTINUOUS
 62
     7
 10
119.5100720374317
 20
215.74999999939979
 30
0.0
 11
119.5100720374317
 21
211.74999999905839
 31
0.0
  0
LINE
  5
254
  8
DATA
  6
CONTINUOUS
 62
     7
 10
114.8335348569956
 20
215.74999999939979
 30
0.0
 11
114.8335348569956
 21
211.74999999905839
 31
0.0
  0
LINE
  5
255
  8
DATA
  6
CONTINUOUS
 62
     7
 10
94.510072037431357
 20
215.74999999939979
 30
0.0
 11
94.510072037431357
 21
211.74999999905839
 31
0.0
  0
LINE
  5
256
  8
DATA
  6
CONTINUOUS
 62
     7
 10
89.833534856995357
 20
215.74999999939979
 30
0.0
 11
89.833534856995357
 21
211.74999999905839
 31
0.0
  0
LINE
  5
257
  8
DATA
  6
CONTINUOUS
 62
     7
 10
113.0905018018393
 20
215.74999999939979
 30
0.0
 11
113.0905018018393
 21
211.74999999905839
 31
0.0
  0
LINE
  5
258
  8
DATA
  6
CONTINUOUS
 62
     7
 10
96.190501801839247
 20
215.74999999939979
 30
0.0
 11
96.190501801839247
 21
211.74999999905839
 31
0.0
  0
TEXT
  5
259
  8
DATA
 62
     7
 10
103.2112760115663
 20
77.935549999897447
 30
0.0
 40
2.8097509765624999
  1
CAT-5
 41
0.7
 11
103.2112760115663
 21
80.745300976459944
 31
0.0
 73
     3
  0
TEXT
  5
25A
  8
DATA
 62
     7
 10
91.669759133401854
 20
51.315764626199481
 30
0.0
 40
4.072102864583333
  1
レシーバー
 41
0.7
 11
91.669759133401854
 21
55.387867490782817
 31
0.0
 73
     3
  0
LINE
  5
25B
  8
DATA
  6
CONTINUOUS
 62
     7
 10
138.01091864263131
 20
215.74999999939979
 30
0.0
 11
138.01091864263131
 21
211.7499999993606
 31
0.0
  0
LINE
  5
25C
  8
DATA
  6
CONTINUOUS
 62
     7
 10
142.68745582306741
 20
215.74999999939979
 30
0.0
 11
142.68745582306741
 21
211.7499999993606
 31
0.0
  0
LINE
  5
25D
  8
DATA
  6
CONTINUOUS
 62
     7
 10
144.83956841996829
 20
215.74999999939979
 30
0.0
 11
144.83956841996829
 21
211.7499999993606
 31
0.0
  0
LINE
  5
25E
  8
DATA
  6
CONTINUOUS
 62
     7
 10
135.5895684199684
 20
211.7499999993606
 30
0.0
 11
135.5895684199684
 21
215.74999999939979
 31
0.0
  0
ARC
  5
25F
  8
DATA
  6
CONTINUOUS
 62
     7
 10
89.000000000056204
 20
226.4999999991548
 30
0.0
 40
1.5
 50
180.0
 51
270.0
  0
ARC
  5
260
  8
DATA
  6
CONTINUOUS
 62
     7
 10
121.0000000000562
 20
226.4999999991548
 30
0.0
 40
1.4999999999999849
 50
270.0
 51
0.0
  0
ARC
  5
261
  8
DATA
  6
CONTINUOUS
 62
     7
 10
89.000000000056204
 20
97.499999999895053
 30
0.0
 40
1.4999999999999709
 50
90.0
 51
180.0
  0
ARC
  5
262
  8
DATA
  6
CONTINUOUS
 62
     7
 10
121.0000000000562
 20
97.499999999895053
 30
0.0
 40
1.5
 50
0.0
 51
90.0
  0
LINE
  5
263
  8
DATA
  6
CONTINUOUS
 62
     7
 10
89.779896815235276
 20
49.999999999897568
 30
0.0
 11
121.0298968152353
 21
49.999999999897568
 31
0.0
  0
TEXT
  5
264
  8
DATA
 62
     7
 10
107.4930336233177
 20
141.13825427796519
 30
0.0
 40
7.3297851562499989
  1
theVGAextender
 50
90.0
 41
0.7
 11
100.1632484670677
 21
141.13825427796519
 31
0.0
 73
     3
  0
TEXT
  5
265
  8
DATA
 62
     7
 10
113.9327215677411
 20
185.54309218703199
 30
0.0
 40
4.072102864583333
  1
Receiver
 50
90.0
 41
0.7
 11
109.8606187031578
 21
185.54309218703199
 31
0.0
 73
     3
  0
LINE
  5
266
  8
DATA
  6
CONTINUOUS
 62
     7
 10
89.833534856995357
 20
215.74999999939979
 30
0.0
 11
94.510072037431357
 21
215.74999999939979
 31
0.0
  0
LINE
  5
267
  8
DATA
  6
CONTINUOUS
 62
     7
 10
96.190501801839247
 20
215.74999999939979
 30
0.0
 11
113.0905018018393
 21
215.74999999939979
 31
0.0
  0
LINE
  5
268
  8
DATA
  6
CONTINUOUS
 62
     7
 10
114.8335348569956
 20
215.74999999939979
 30
0.0
 11
119.5100720374317
 21
215.74999999939979
 31
0.0
  0
LINE
  5
269
  8
DATA
  6
CONTINUOUS
 62
     7
 10
135.5895684199684
 20
215.74999999939979
 30
0.0
 11
144.83956841996829
 21
215.74999999939979
 31
0.0
  0
CIRCLE
  5
26A
  8
DATA
  6
CONTINUOUS
 62
     7
 10
117.991730343938
 20
92.489158055525394
 30
0.0
 40
1.0
  0
LINE
  5
26B
  8
DATA
  6
CONTINUOUS
 62
     7
 10
168.7499999997996
 20
118.74999999939961
 30
0.0
 11
168.7499999997996
 21
211.74999999939979
 31
0.0
  0
LINE
  5
26C
  8
DATA
  6
CONTINUOUS
 62
     7
 10
203.74999999979991
 20
118.74999999939961
 30
0.0
 11
199.34999999979979
 21
118.74999999939961
 31
0.0
  0
LINE
  5
26D
  8
DATA
  6
CONTINUOUS
 62
     7
 10
173.14999999979969
 20
118.74999999939961
 30
0.0
 11
168.7499999997996
 21
118.74999999939961
 31
0.0
  0
LINE
  5
26E
  8
DATA
  6
CONTINUOUS
 62
     7
 10
203.74999999979991
 20
211.74999999939979
 30
0.0
 11
203.74999999979991
 21
118.74999999939961
 31
0.0
  0
LINE
  5
26F
  8
DATA
  6
CONTINUOUS
 62
     7
 10
168.7499999997996
 20
211.74999999939979
 30
0.0
 11
173.14999999979969
 21
211.74999999939979
 31
0.0
  0
LINE
  5
270
  8
DATA
  6
CONTINUOUS
 62
     7
 10
199.34999999979979
 20
211.74999999939979
 30
0.0
 11
203.74999999979991
 21
211.74999999939979
 31
0.0
  0
LINE
  5
271
  8
DATA
  6
CONTINUOUS
 62
     7
 10
201.15700903558309
 20
215.74999999939979
 30
0.0
 11
201.15700903558309
 21
211.74999999905839
 31
0.0
  0
LINE
  5
272
  8
DATA
  6
CONTINUOUS
 62
     7
 10
196.4804718551471
 20
215.74999999939979
 30
0.0
 11
196.4804718551471
 21
210.74999999939979
 31
0.0
  0
LINE
  5
273
  8
DATA
  6
CONTINUOUS
 62
     7
 10
176.15700903558269
 20
215.74999999939979
 30
0.0
 11
176.15700903558269
 21
210.74999999939979
 31
0.0
  0
LINE
  5
274
  8
DATA
  6
CONTINUOUS
 62
     7
 10
171.48047185514659
 20
215.74999999939979
 30
0.0
 11
171.48047185514659
 21
211.74999999905839
 31
0.0
  0
LINE
  5
275
  8
DATA
  6
CONTINUOUS
 62
     7
 10
194.7374387999906
 20
215.74999999939979
 30
0.0
 11
194.7374387999906
 21
210.74999999939979
 31
0.0
  0
LINE
  5
276
  8
DATA
  6
CONTINUOUS
 62
     7
 10
177.83743879999051
 20
215.74999999939979
 30
0.0
 11
177.83743879999051
 21
210.74999999939979
 31
0.0
  0
LINE
  5
277
  8
DATA
  6
CONTINUOUS
 62
     7
 10
171.48047185514659
 20
215.74999999939979
 30
0.0
 11
176.15700903558269
 21
215.74999999939979
 31
0.0
  0
LINE
  5
278
  8
DATA
  6
CONTINUOUS
 62
     7
 10
177.83743879999051
 20
215.74999999939979
 30
0.0
 11
194.7374387999906
 21
215.74999999939979
 31
0.0
  0
LINE
  5
279
  8
DATA
  6
CONTINUOUS
 62
     7
 10
196.4804718551471
 20
215.74999999939979
 30
0.0
 11
201.15700903558309
 21
215.74999999939979
 31
0.0
  0
LINE
  5
27A
  8
DATA
  6
CONTINUOUS
 62
     7
 10
177.14999999979969
 20
122.74999999939961
 30
0.0
 11
177.14999999979969
 21
207.74999999939979
 31
0.0
  0
LINE
  5
27B
  8
DATA
  6
CONTINUOUS
 62
     7
 10
195.34999999979979
 20
207.74999999939979
 30
0.0
 11
195.34999999979979
 21
122.74999999939961
 31
0.0
  0
LINE
  5
27C
  8
DATA
  6
CONTINUOUS
 62
     7
 10
175.76007203717481
 20
210.74999999939979
 30
0.0
 11
196.7042486887353
 21
210.74999999939979
 31
0.0
  0
ARC
  5
27D
  8
DATA
  6
CONTINUOUS
 62
     7
 10
173.14999999979969
 20
207.74999999939979
 30
0.0
 40
4.0
 50
0.0
 51
90.0
  0
ARC
  5
27E
  8
DATA
  6
CONTINUOUS
 62
     7
 10
199.34999999979979
 20
207.74999999939979
 30
0.0
 40
4.0
 50
90.0
 51
180.0
  0
LINE
  5
27F
  8
DATA
  6
CONTINUOUS
 62
     7
 10
196.7042486887353
 20
119.74999999939961
 30
0.0
 11
175.79575131086429
 21
119.74999999939961
 31
0.0
  0
ARC
  5
280
  8
DATA
  6
CONTINUOUS
 62
     7
 10
173.14999999979969
 20
122.74999999939961
 30
0.0
 40
4.0
 50
270.0
 51
0.0
  0
ARC
  5
281
  8
DATA
  6
CONTINUOUS
 62
     7
 10
199.34999999979979
 20
122.74999999939961
 30
0.0
 40
4.0
 50
180.0
 51
270.0
  0
CIRCLE
  5
282
  8
DATA
  6
CONTINUOUS
 62
     7
 10
172.85801276627811
 20
205.9581407113248
 30
0.0
 40
3.750000000000056
  0
CIRCLE
  5
283
  8
DATA
  6
CONTINUOUS
 62
     7
 10
172.85801276627811
 20
124.5372680663605
 30
0.0
 40
3.750000000000056
  0
CIRCLE
  5
284
  8
DATA
  6
CONTINUOUS
 62
     7
 10
199.64198723332129
 20
205.9581407113248
 30
0.0
 40
3.75
  0
CIRCLE
  5
285
  8
DATA
  6
CONTINUOUS
 62
     7
 10
199.64198723332129
 20
124.5372680663605
 30
0.0
 40
3.75
  0
LINE
  5
286
  8
DATA
  6
CONTINUOUS
 62
     7
 10
177.64999999979969
 20
185.7891451148607
 30
0.0
 11
188.84999999979979
 21
185.7891451148607
 31
0.0
  0
LINE
  5
287
  8
DATA
  6
CONTINUOUS
 62
     7
 10
177.64999999979969
 20
179.06914511486059
 30
0.0
 11
188.84999999979979
 21
179.06914511486059
 31
0.0
  0
LINE
  5
288
  8
DATA
  6
CONTINUOUS
 62
     7
 10
177.64999999979969
 20
179.06914511486059
 30
0.0
 11
177.64999999979969
 21
185.77999999989709
 31
0.0
  0
LINE
  5
289
  8
DATA
  6
CONTINUOUS
 62
     7
 10
188.84999999979979
 20
179.06914511486059
 30
0.0
 11
188.84999999979979
 21
185.7891451148607
 31
0.0
  0
LINE
  5
28A
  8
DATA
  6
CONTINUOUS
 62
     7
 10
183.8999999997998
 20
181.06914511486059
 30
0.0
 11
183.8999999997998
 21
183.5691451148607
 31
0.0
  0
LINE
  5
28B
  8
DATA
  6
CONTINUOUS
 62
     7
 10
185.1499999997998
 20
181.06914511486059
 30
0.0
 11
183.8999999997998
 21
181.06914511486059
 31
0.0
  0
LINE
  5
28C
  8
DATA
  6
CONTINUOUS
 62
     7
 10
185.1499999997998
 20
183.5691451148607
 30
0.0
 11
185.1499999997998
 21
181.06914511486059
 31
0.0
  0
LINE
  5
28D
  8
DATA
  6
CONTINUOUS
 62
     7
 10
183.8999999997998
 20
183.5691451148607
 30
0.0
 11
185.1499999997998
 21
183.5691451148607
 31
0.0
  0
LINE
  5
28E
  8
DATA
  6
CONTINUOUS
 62
     7
 10
181.34999999979971
 20
181.06914511486059
 30
0.0
 11
181.34999999979971
 21
183.5691451148607
 31
0.0
  0
LINE
  5
28F
  8
DATA
  6
CONTINUOUS
 62
     7
 10
182.59999999979971
 20
181.06914511486059
 30
0.0
 11
181.34999999979971
 21
181.06914511486059
 31
0.0
  0
LINE
  5
290
  8
DATA
  6
CONTINUOUS
 62
     7
 10
182.59999999979971
 20
183.5691451148607
 30
0.0
 11
182.59999999979971
 21
181.06914511486059
 31
0.0
  0
LINE
  5
291
  8
DATA
  6
CONTINUOUS
 62
     7
 10
181.34999999979971
 20
183.5691451148607
 30
0.0
 11
182.59999999979971
 21
183.5691451148607
 31
0.0
  0
LINE
  5
292
  8
DATA
  6
CONTINUOUS
 62
     7
 10
186.4499999997997
 20
181.06914511486059
 30
0.0
 11
186.4499999997997
 21
183.5691451148607
 31
0.0
  0
LINE
  5
293
  8
DATA
  6
CONTINUOUS
 62
     7
 10
187.6999999997997
 20
181.06914511486059
 30
0.0
 11
186.4499999997997
 21
181.06914511486059
 31
0.0
  0
LINE
  5
294
  8
DATA
  6
CONTINUOUS
 62
     7
 10
187.6999999997997
 20
183.5691451148607
 30
0.0
 11
187.6999999997997
 21
181.06914511486059
 31
0.0
  0
LINE
  5
295
  8
DATA
  6
CONTINUOUS
 62
     7
 10
186.4499999997997
 20
183.5691451148607
 30
0.0
 11
187.6999999997997
 21
183.5691451148607
 31
0.0
  0
LINE
  5
296
  8
DATA
  6
CONTINUOUS
 62
     7
 10
178.79999999979981
 20
181.06914511486059
 30
0.0
 11
178.79999999979981
 21
183.5691451148607
 31
0.0
  0
LINE
  5
297
  8
DATA
  6
CONTINUOUS
 62
     7
 10
180.0499999997997
 20
181.06914511486059
 30
0.0
 11
178.79999999979981
 21
181.06914511486059
 31
0.0
  0
LINE
  5
298
  8
DATA
  6
CONTINUOUS
 62
     7
 10
180.0499999997997
 20
183.5691451148607
 30
0.0
 11
180.0499999997997
 21
181.06914511486059
 31
0.0
  0
LINE
  5
299
  8
DATA
  6
CONTINUOUS
 62
     7
 10
178.79999999979981
 20
183.5691451148607
 30
0.0
 11
180.0499999997997
 21
183.5691451148607
 31
0.0
  0
TEXT
  5
29A
  8
DATA
 62
     7
 10
179.15874557930459
 20
179.6056976085529
 30
0.0
 40
0.8144205729166667
  1
1
 41
0.7
 11
179.15874557930459
 21
180.42011818146949
 31
0.0
 73
     3
  0
TEXT
  5
29B
  8
DATA
 62
     7
 10
181.7087455793046
 20
179.6056976085529
 30
0.0
 40
0.8144205729166667
  1
2
 41
0.7
 11
181.7087455793046
 21
180.42011818146949
 31
0.0
 73
     3
  0
TEXT
  5
29C
  8
DATA
 62
     7
 10
184.2587455793047
 20
179.6056976085529
 30
0.0
 40
0.8144205729166667
  1
3
 41
0.7
 11
184.2587455793047
 21
180.42011818146949
 31
0.0
 73
     3
  0
TEXT
  5
29D
  8
DATA
 62
     7
 10
186.80874557930471
 20
179.6056976085529
 30
0.0
 40
0.8144205729166667
  1
4
 41
0.7
 11
186.80874557930471
 21
180.42011818146949
 31
0.0
 73
     3
  0
TEXT
  5
29E
  8
DATA
 62
     7
 10
181.4268905650942
 20
184.2280672917683
 30
0.0
 40
0.8144205729166667
  1
ON  RSN
 41
0.7
 11
181.4268905650942
 21
185.04248786468489
 31
0.0
 73
     3
  0
LINE
  5
29F
  8
DATA
  6
CONTINUOUS
 62
     7
 10
178.79999999979981
 20
182.31914511486059
 30
0.0
 11
180.0499999997997
 21
182.31914511486059
 31
0.0
  0
LINE
  5
2A0
  8
DATA
  6
CONTINUOUS
 62
     7
 10
181.34999999979971
 20
182.31914511486059
 30
0.0
 11
182.59999999979971
 21
182.31914511486059
 31
0.0
  0
LINE
  5
2A1
  8
DATA
  6
CONTINUOUS
 62
     7
 10
183.8999999997998
 20
182.31914511486059
 30
0.0
 11
185.1499999997998
 21
182.31914511486059
 31
0.0
  0
LINE
  5
2A2
  8
DATA
  6
CONTINUOUS
 62
     7
 10
186.4499999997997
 20
182.31914511486059
 30
0.0
 11
187.6999999997997
 21
182.31914511486059
 31
0.0
  0
LINE
  5
2A3
  8
DATA
  6
CONTINUOUS
 62
     7
 10
236.49999999944799
 20
118.7499999998698
 30
0.0
 11
236.49999999944799
 21
211.74999999987
 31
0.0
  0
LINE
  5
2A4
  8
DATA
  6
CONTINUOUS
 62
     7
 10
212.49999999944851
 20
118.7499999998698
 30
0.0
 11
236.49999999944799
 21
118.7499999998698
 31
0.0
  0
LINE
  5
2A5
  8
DATA
  6
CONTINUOUS
 62
     7
 10
212.49999999944851
 20
211.74999999987
 30
0.0
 11
212.49999999944851
 21
118.7499999998698
 31
0.0
  0
LINE
  5
2A6
  8
DATA
  6
CONTINUOUS
 62
     7
 10
236.49999999944799
 20
211.74999999987
 30
0.0
 11
212.49999999944851
 21
211.74999999987
 31
0.0
  0
ARC
  5
2A7
  8
DATA
  6
CONTINUOUS
 62
     7
 10
215.01562499954861
 20
124.5418592879448
 30
0.0
 40
4.5156250000000551
 50
123.8550261282945
 51
236.14497387170519
  0
ARC
  5
2A8
  8
DATA
  6
CONTINUOUS
 62
     7
 10
215.01562499954861
 20
205.9581407117951
 30
0.0
 40
4.5156250000000071
 50
123.8550261282948
 51
236.14497387170559
  0
LINE
  5
2A9
  8
DATA
  6
CONTINUOUS
 62
     7
 10
229.71510180171649
 20
215.74999999987
 30
0.0
 11
229.71510180171649
 21
211.74999999983089
 31
0.0
  0
LINE
  5
2AA
  8
DATA
  6
CONTINUOUS
 62
     7
 10
225.0385646212805
 20
215.74999999987
 30
0.0
 11
225.0385646212805
 21
211.74999999983089
 31
0.0
  0
LINE
  5
2AB
  8
DATA
  6
CONTINUOUS
 62
     7
 10
222.88645202437939
 20
215.74999999987
 30
0.0
 11
222.88645202437939
 21
211.74999999983089
 31
0.0
  0
LINE
  5
2AC
  8
DATA
  6
CONTINUOUS
 62
     7
 10
232.13645202437931
 20
211.74999999983089
 30
0.0
 11
232.13645202437931
 21
215.74999999987
 31
0.0
  0
LINE
  5
2AD
  8
DATA
  6
CONTINUOUS
 62
     7
 10
232.13645202437931
 20
215.74999999987
 30
0.0
 11
222.88645202437939
 21
215.74999999987
 31
0.0
  0
LINE
  5
2AE
  8
DATA
  6
CONTINUOUS
 62
     7
 10
177.64999999979969
 20
168.62914511486071
 30
0.0
 11
188.84999999979979
 21
168.62914511486071
 31
0.0
  0
LINE
  5
2AF
  8
DATA
  6
CONTINUOUS
 62
     7
 10
177.64999999979969
 20
161.90914511486059
 30
0.0
 11
188.84999999979979
 21
161.90914511486059
 31
0.0
  0
LINE
  5
2B0
  8
DATA
  6
CONTINUOUS
 62
     7
 10
177.64999999979969
 20
161.90914511486059
 30
0.0
 11
177.64999999979969
 21
168.619999999897
 31
0.0
  0
LINE
  5
2B1
  8
DATA
  6
CONTINUOUS
 62
     7
 10
188.84999999979979
 20
161.90914511486059
 30
0.0
 11
188.84999999979979
 21
168.62914511486071
 31
0.0
  0
LINE
  5
2B2
  8
DATA
  6
CONTINUOUS
 62
     7
 10
183.8999999997998
 20
163.90914511486059
 30
0.0
 11
183.8999999997998
 21
166.40914511486071
 31
0.0
  0
LINE
  5
2B3
  8
DATA
  6
CONTINUOUS
 62
     7
 10
185.1499999997998
 20
163.90914511486059
 30
0.0
 11
183.8999999997998
 21
163.90914511486059
 31
0.0
  0
LINE
  5
2B4
  8
DATA
  6
CONTINUOUS
 62
     7
 10
185.1499999997998
 20
166.40914511486071
 30
0.0
 11
185.1499999997998
 21
163.90914511486059
 31
0.0
  0
LINE
  5
2B5
  8
DATA
  6
CONTINUOUS
 62
     7
 10
183.8999999997998
 20
166.40914511486071
 30
0.0
 11
185.1499999997998
 21
166.40914511486071
 31
0.0
  0
LINE
  5
2B6
  8
DATA
  6
CONTINUOUS
 62
     7
 10
181.34999999979971
 20
163.90914511486059
 30
0.0
 11
181.34999999979971
 21
166.40914511486071
 31
0.0
  0
LINE
  5
2B7
  8
DATA
  6
CONTINUOUS
 62
     7
 10
182.59999999979971
 20
163.90914511486059
 30
0.0
 11
181.34999999979971
 21
163.90914511486059
 31
0.0
  0
LINE
  5
2B8
  8
DATA
  6
CONTINUOUS
 62
     7
 10
182.59999999979971
 20
166.40914511486071
 30
0.0
 11
182.59999999979971
 21
163.90914511486059
 31
0.0
  0
LINE
  5
2B9
  8
DATA
  6
CONTINUOUS
 62
     7
 10
181.34999999979971
 20
166.40914511486071
 30
0.0
 11
182.59999999979971
 21
166.40914511486071
 31
0.0
  0
LINE
  5
2BA
  8
DATA
  6
CONTINUOUS
 62
     7
 10
186.4499999997997
 20
163.90914511486059
 30
0.0
 11
186.4499999997997
 21
166.40914511486071
 31
0.0
  0
LINE
  5
2BB
  8
DATA
  6
CONTINUOUS
 62
     7
 10
187.6999999997997
 20
163.90914511486059
 30
0.0
 11
186.4499999997997
 21
163.90914511486059
 31
0.0
  0
LINE
  5
2BC
  8
DATA
  6
CONTINUOUS
 62
     7
 10
187.6999999997997
 20
166.40914511486071
 30
0.0
 11
187.6999999997997
 21
163.90914511486059
 31
0.0
  0
LINE
  5
2BD
  8
DATA
  6
CONTINUOUS
 62
     7
 10
186.4499999997997
 20
166.40914511486071
 30
0.0
 11
187.6999999997997
 21
166.40914511486071
 31
0.0
  0
LINE
  5
2BE
  8
DATA
  6
CONTINUOUS
 62
     7
 10
178.79999999979981
 20
163.90914511486059
 30
0.0
 11
178.79999999979981
 21
166.40914511486071
 31
0.0
  0
LINE
  5
2BF
  8
DATA
  6
CONTINUOUS
 62
     7
 10
180.0499999997997
 20
163.90914511486059
 30
0.0
 11
178.79999999979981
 21
163.90914511486059
 31
0.0
  0
LINE
  5
2C0
  8
DATA
  6
CONTINUOUS
 62
     7
 10
180.0499999997997
 20
166.40914511486071
 30
0.0
 11
180.0499999997997
 21
163.90914511486059
 31
0.0
  0
LINE
  5
2C1
  8
DATA
  6
CONTINUOUS
 62
     7
 10
178.79999999979981
 20
166.40914511486071
 30
0.0
 11
180.0499999997997
 21
166.40914511486071
 31
0.0
  0
TEXT
  5
2C2
  8
DATA
 62
     7
 10
179.15874557930459
 20
162.4456976085529
 30
0.0
 40
0.8144205729166667
  1
1
 41
0.7
 11
179.15874557930459
 21
163.26011818146949
 31
0.0
 73
     3
  0
TEXT
  5
2C3
  8
DATA
 62
     7
 10
181.7087455793046
 20
162.4456976085529
 30
0.0
 40
0.8144205729166667
  1
2
 41
0.7
 11
181.7087455793046
 21
163.26011818146949
 31
0.0
 73
     3
  0
TEXT
  5
2C4
  8
DATA
 62
     7
 10
184.2587455793047
 20
162.4456976085529
 30
0.0
 40
0.8144205729166667
  1
3
 41
0.7
 11
184.2587455793047
 21
163.26011818146949
 31
0.0
 73
     3
  0
TEXT
  5
2C5
  8
DATA
 62
     7
 10
186.80874557930471
 20
162.4456976085529
 30
0.0
 40
0.8144205729166667
  1
4
 41
0.7
 11
186.80874557930471
 21
163.26011818146949
 31
0.0
 73
     3
  0
TEXT
  5
2C6
  8
DATA
 62
     7
 10
181.4268905650942
 20
167.0680672917683
 30
0.0
 40
0.8144205729166667
  1
ON  RSN
 41
0.7
 11
181.4268905650942
 21
167.882487864685
 31
0.0
 73
     3
  0
LINE
  5
2C7
  8
DATA
  6
CONTINUOUS
 62
     7
 10
178.79999999979981
 20
165.15914511486059
 30
0.0
 11
180.0499999997997
 21
165.15914511486059
 31
0.0
  0
LINE
  5
2C8
  8
DATA
  6
CONTINUOUS
 62
     7
 10
181.34999999979971
 20
165.15914511486059
 30
0.0
 11
182.59999999979971
 21
165.15914511486059
 31
0.0
  0
LINE
  5
2C9
  8
DATA
  6
CONTINUOUS
 62
     7
 10
183.8999999997998
 20
165.15914511486059
 30
0.0
 11
185.1499999997998
 21
165.15914511486059
 31
0.0
  0
LINE
  5
2CA
  8
DATA
  6
CONTINUOUS
 62
     7
 10
186.4499999997997
 20
165.15914511486059
 30
0.0
 11
187.6999999997997
 21
165.15914511486059
 31
0.0
  0
LINE
  5
2CB
  8
DATA
  6
CONTINUOUS
 62
     7
 10
177.64999999979969
 20
151.46914511486071
 30
0.0
 11
188.84999999979979
 21
151.46914511486071
 31
0.0
  0
LINE
  5
2CC
  8
DATA
  6
CONTINUOUS
 62
     7
 10
177.64999999979969
 20
144.7491451148606
 30
0.0
 11
188.84999999979979
 21
144.7491451148606
 31
0.0
  0
LINE
  5
2CD
  8
DATA
  6
CONTINUOUS
 62
     7
 10
177.64999999979969
 20
144.7491451148606
 30
0.0
 11
177.64999999979969
 21
151.45999999989709
 31
0.0
  0
LINE
  5
2CE
  8
DATA
  6
CONTINUOUS
 62
     7
 10
188.84999999979979
 20
144.7491451148606
 30
0.0
 11
188.84999999979979
 21
151.46914511486071
 31
0.0
  0
LINE
  5
2CF
  8
DATA
  6
CONTINUOUS
 62
     7
 10
183.8999999997998
 20
146.7491451148606
 30
0.0
 11
183.8999999997998
 21
149.24914511486071
 31
0.0
  0
LINE
  5
2D0
  8
DATA
  6
CONTINUOUS
 62
     7
 10
185.1499999997998
 20
146.7491451148606
 30
0.0
 11
183.8999999997998
 21
146.7491451148606
 31
0.0
  0
LINE
  5
2D1
  8
DATA
  6
CONTINUOUS
 62
     7
 10
185.1499999997998
 20
149.24914511486071
 30
0.0
 11
185.1499999997998
 21
146.7491451148606
 31
0.0
  0
LINE
  5
2D2
  8
DATA
  6
CONTINUOUS
 62
     7
 10
183.8999999997998
 20
149.24914511486071
 30
0.0
 11
185.1499999997998
 21
149.24914511486071
 31
0.0
  0
LINE
  5
2D3
  8
DATA
  6
CONTINUOUS
 62
     7
 10
181.34999999979971
 20
146.7491451148606
 30
0.0
 11
181.34999999979971
 21
149.24914511486071
 31
0.0
  0
LINE
  5
2D4
  8
DATA
  6
CONTINUOUS
 62
     7
 10
182.59999999979971
 20
146.7491451148606
 30
0.0
 11
181.34999999979971
 21
146.7491451148606
 31
0.0
  0
LINE
  5
2D5
  8
DATA
  6
CONTINUOUS
 62
     7
 10
182.59999999979971
 20
149.24914511486071
 30
0.0
 11
182.59999999979971
 21
146.7491451148606
 31
0.0
  0
LINE
  5
2D6
  8
DATA
  6
CONTINUOUS
 62
     7
 10
181.34999999979971
 20
149.24914511486071
 30
0.0
 11
182.59999999979971
 21
149.24914511486071
 31
0.0
  0
LINE
  5
2D7
  8
DATA
  6
CONTINUOUS
 62
     7
 10
186.4499999997997
 20
146.7491451148606
 30
0.0
 11
186.4499999997997
 21
149.24914511486071
 31
0.0
  0
LINE
  5
2D8
  8
DATA
  6
CONTINUOUS
 62
     7
 10
187.6999999997997
 20
146.7491451148606
 30
0.0
 11
186.4499999997997
 21
146.7491451148606
 31
0.0
  0
LINE
  5
2D9
  8
DATA
  6
CONTINUOUS
 62
     7
 10
187.6999999997997
 20
149.24914511486071
 30
0.0
 11
187.6999999997997
 21
146.7491451148606
 31
0.0
  0
LINE
  5
2DA
  8
DATA
  6
CONTINUOUS
 62
     7
 10
186.4499999997997
 20
149.24914511486071
 30
0.0
 11
187.6999999997997
 21
149.24914511486071
 31
0.0
  0
LINE
  5
2DB
  8
DATA
  6
CONTINUOUS
 62
     7
 10
178.79999999979981
 20
146.7491451148606
 30
0.0
 11
178.79999999979981
 21
149.24914511486071
 31
0.0
  0
LINE
  5
2DC
  8
DATA
  6
CONTINUOUS
 62
     7
 10
180.0499999997997
 20
146.7491451148606
 30
0.0
 11
178.79999999979981
 21
146.7491451148606
 31
0.0
  0
LINE
  5
2DD
  8
DATA
  6
CONTINUOUS
 62
     7
 10
180.0499999997997
 20
149.24914511486071
 30
0.0
 11
180.0499999997997
 21
146.7491451148606
 31
0.0
  0
LINE
  5
2DE
  8
DATA
  6
CONTINUOUS
 62
     7
 10
178.79999999979981
 20
149.24914511486071
 30
0.0
 11
180.0499999997997
 21
149.24914511486071
 31
0.0
  0
TEXT
  5
2DF
  8
DATA
 62
     7
 10
179.15874557930459
 20
145.28569760855279
 30
0.0
 40
0.8144205729166667
  1
1
 41
0.7
 11
179.15874557930459
 21
146.1001181814695
 31
0.0
 73
     3
  0
TEXT
  5
2E0
  8
DATA
 62
     7
 10
181.7087455793046
 20
145.28569760855279
 30
0.0
 40
0.8144205729166667
  1
2
 41
0.7
 11
181.7087455793046
 21
146.1001181814695
 31
0.0
 73
     3
  0
TEXT
  5
2E1
  8
DATA
 62
     7
 10
184.2587455793047
 20
145.28569760855279
 30
0.0
 40
0.8144205729166667
  1
3
 41
0.7
 11
184.2587455793047
 21
146.1001181814695
 31
0.0
 73
     3
  0
TEXT
  5
2E2
  8
DATA
 62
     7
 10
186.80874557930471
 20
145.28569760855279
 30
0.0
 40
0.8144205729166667
  1
4
 41
0.7
 11
186.80874557930471
 21
146.1001181814695
 31
0.0
 73
     3
  0
TEXT
  5
2E3
  8
DATA
 62
     7
 10
181.4268905650942
 20
149.9080672917683
 30
0.0
 40
0.8144205729166667
  1
ON  RSN
 41
0.7
 11
181.4268905650942
 21
150.72248786468501
 31
0.0
 73
     3
  0
LINE
  5
2E4
  8
DATA
  6
CONTINUOUS
 62
     7
 10
178.79999999979981
 20
147.9991451148606
 30
0.0
 11
180.0499999997997
 21
147.9991451148606
 31
0.0
  0
LINE
  5
2E5
  8
DATA
  6
CONTINUOUS
 62
     7
 10
181.34999999979971
 20
147.9991451148606
 30
0.0
 11
182.59999999979971
 21
147.9991451148606
 31
0.0
  0
LINE
  5
2E6
  8
DATA
  6
CONTINUOUS
 62
     7
 10
183.8999999997998
 20
147.9991451148606
 30
0.0
 11
185.1499999997998
 21
147.9991451148606
 31
0.0
  0
LINE
  5
2E7
  8
DATA
  6
CONTINUOUS
 62
     7
 10
186.4499999997997
 20
147.9991451148606
 30
0.0
 11
187.6999999997997
 21
147.9991451148606
 31
0.0
  0
TEXT
  5
2E8
  8
DATA
 62
     7
 10
212.97658145418379
 20
183.03419444056971
 30
0.0
 40
2.3889670138888879
  1
G
 50
270.0
 41
0.7
 11
215.36554846807269
 21
183.03419444056971
 31
0.0
 73
     3
  0
TEXT
  5
2E9
  8
DATA
 62
     7
 10
212.97288888848689
 20
165.9702256489889
 30
0.0
 40
2.1717881944444439
  1
B
 50
270.0
 41
0.7
 11
215.14467708293139
 21
165.9702256489889
 31
0.0
 73
     3
  0
TEXT
  5
2EA
  8
DATA
 62
     7
 10
213.17288888848691
 20
148.88121938681749
 30
0.0
 40
2.1717881944444439
  1
R
 50
270.0
 41
0.7
 11
215.3446770829313
 21
148.88121938681749
 31
0.0
 73
     3
  0
TEXT
  5
2EB
  8
DATA
 62
     7
 10
233.74492761146359
 20
190.67293496674941
 30
0.0
 40
1.791725260416666
  1
7.5m以下
 50
270.0
 41
0.7
 11
235.53665287188031
 21
190.67293496674941
 31
0.0
 73
     3
  0
TEXT
  5
2EC
  8
DATA
 62
     7
 10
229.7526377828429
 20
189.94529024723619
 30
0.0
 40
1.791725260416666
  1
1：OFF
 50
270.0
 41
0.7
 11
231.54436304325961
 21
189.94529024723619
 31
0.0
 73
     3
  0
TEXT
  5
2ED
  8
DATA
 62
     7
 10
226.45263778284291
 20
189.94529024723619
 30
0.0
 40
1.791725260416666
  1
2：OFF
 50
270.0
 41
0.7
 11
228.2443630432596
 21
189.94529024723619
 31
0.0
 73
     3
  0
TEXT
  5
2EE
  8
DATA
 62
     7
 10
223.1526377828429
 20
189.94529024723619
 30
0.0
 40
1.791725260416666
  1
3：OFF
 50
270.0
 41
0.7
 11
224.94436304325961
 21
189.94529024723619
 31
0.0
 73
     3
  0
TEXT
  5
2EF
  8
DATA
 62
     7
 10
219.852637782843
 20
189.94529024723619
 30
0.0
 40
1.791725260416666
  1
4：OFF
 50
270.0
 41
0.7
 11
221.64436304325969
 21
189.94529024723619
 31
0.0
 73
     3
  0
TEXT
  5
2F0
  8
DATA
 62
     7
 10
233.74492761146359
 20
178.9379275351354
 30
0.0
 40
1.791725260416666
  1
7.5～30m
 50
270.0
 41
0.7
 11
235.53665287188031
 21
178.9379275351354
 31
0.0
 73
     3
  0
TEXT
  5
2F1
  8
DATA
 62
     7
 10
229.7526377828429
 20
177.8423371753064
 30
0.0
 40
1.791725260416666
  1
1：ON
 50
270.0
 41
0.7
 11
231.54436304325961
 21
177.8423371753064
 31
0.0
 73
     3
  0
TEXT
  5
2F2
  8
DATA
 62
     7
 10
226.45263778284291
 20
177.8423371753064
 30
0.0
 40
1.791725260416666
  1
2：OFF
 50
270.0
 41
0.7
 11
228.2443630432596
 21
177.8423371753064
 31
0.0
 73
     3
  0
TEXT
  5
2F3
  8
DATA
 62
     7
 10
223.1526377828429
 20
177.8423371753064
 30
0.0
 40
1.791725260416666
  1
3：OFF
 50
270.0
 41
0.7
 11
224.94436304325961
 21
177.8423371753064
 31
0.0
 73
     3
  0
TEXT
  5
2F4
  8
DATA
 62
     7
 10
219.852637782843
 20
177.8423371753064
 30
0.0
 40
1.791725260416666
  1
4：OFF
 50
270.0
 41
0.7
 11
221.64436304325969
 21
177.8423371753064
 31
0.0
 73
     3
  0
TEXT
  5
2F5
  8
DATA
 62
     7
 10
233.74492761146359
 20
166.6961252257137
 30
0.0
 40
1.791725260416666
  1
30～60m
 50
270.0
 41
0.7
 11
235.53665287188031
 21
166.6961252257137
 31
0.0
 73
     3
  0
TEXT
  5
2F6
  8
DATA
 62
     7
 10
229.7526377828429
 20
165.88740201351891
 30
0.0
 40
1.791725260416666
  1
1：OFF
 50
270.0
 41
0.7
 11
231.54436304325961
 21
165.88740201351891
 31
0.0
 73
     3
  0
TEXT
  5
2F7
  8
DATA
 62
     7
 10
226.45263778284291
 20
165.88740201351891
 30
0.0
 40
1.791725260416666
  1
2：ON
 50
270.0
 41
0.7
 11
228.2443630432596
 21
165.88740201351891
 31
0.0
 73
     3
  0
TEXT
  5
2F8
  8
DATA
 62
     7
 10
223.1526377828429
 20
165.88740201351891
 30
0.0
 40
1.791725260416666
  1
3：OFF
 50
270.0
 41
0.7
 11
224.94436304325961
 21
165.88740201351891
 31
0.0
 73
     3
  0
TEXT
  5
2F9
  8
DATA
 62
     7
 10
219.852637782843
 20
165.88740201351891
 30
0.0
 40
1.791725260416666
  1
4：OFF
 50
270.0
 41
0.7
 11
221.64436304325969
 21
165.88740201351891
 31
0.0
 73
     3
  0
TEXT
  5
2FA
  8
DATA
 62
     7
 10
233.74492761146359
 20
154.59718933772999
 30
0.0
 40
1.791725260416666
  1
60～90m
 50
270.0
 41
0.7
 11
235.53665287188031
 21
154.59718933772999
 31
0.0
 73
     3
  0
TEXT
  5
2FB
  8
DATA
 62
     7
 10
229.7526377828429
 20
153.86018291244369
 30
0.0
 40
1.791725260416666
  1
1：OFF
 50
270.0
 41
0.7
 11
231.54436304325961
 21
153.86018291244369
 31
0.0
 73
     3
  0
TEXT
  5
2FC
  8
DATA
 62
     7
 10
226.45263778284291
 20
153.86018291244369
 30
0.0
 40
1.791725260416666
  1
2：OFF
 50
270.0
 41
0.7
 11
228.2443630432596
 21
153.86018291244369
 31
0.0
 73
     3
  0
TEXT
  5
2FD
  8
DATA
 62
     7
 10
223.1526377828429
 20
153.86018291244369
 30
0.0
 40
1.791725260416666
  1
3：ON
 50
270.0
 41
0.7
 11
224.94436304325961
 21
153.86018291244369
 31
0.0
 73
     3
  0
TEXT
  5
2FE
  8
DATA
 62
     7
 10
219.852637782843
 20
153.86018291244369
 30
0.0
 40
1.791725260416666
  1
4：OFF
 50
270.0
 41
0.7
 11
221.64436304325969
 21
153.86018291244369
 31
0.0
 73
     3
  0
TEXT
  5
2FF
  8
DATA
 62
     7
 10
233.74492761146359
 20
142.84492718432739
 30
0.0
 40
1.791725260416666
  1
90m以上
 50
270.0
 41
0.7
 11
235.53665287188031
 21
142.84492718432739
 31
0.0
 73
     3
  0
TEXT
  5
300
  8
DATA
 62
     7
 10
229.7526377828429
 20
141.89277039831561
 30
0.0
 40
1.791725260416666
  1
1：OFF
 50
270.0
 41
0.7
 11
231.54436304325961
 21
141.89277039831561
 31
0.0
 73
     3
  0
TEXT
  5
301
  8
DATA
 62
     7
 10
226.45263778284291
 20
141.89277039831561
 30
0.0
 40
1.791725260416666
  1
2：OFF
 50
270.0
 41
0.7
 11
228.2443630432596
 21
141.89277039831561
 31
0.0
 73
     3
  0
TEXT
  5
302
  8
DATA
 62
     7
 10
223.1526377828429
 20
141.89277039831561
 30
0.0
 40
1.791725260416666
  1
3：ON
 50
270.0
 41
0.7
 11
224.94436304325961
 21
141.89277039831561
 31
0.0
 73
     3
  0
TEXT
  5
303
  8
DATA
 62
     7
 10
219.852637782843
 20
141.89277039831561
 30
0.0
 40
1.791725260416666
  1
4：OFF
 50
270.0
 41
0.7
 11
221.64436304325969
 21
141.89277039831561
 31
0.0
 73
     3
  0
TEXT
  5
304
  8
DATA
 62
     7
 10
216.5410669067484
 20
182.16066414984641
 30
0.0
 40
1.791725260416666
  1
DIPスイッチは全て同じに設定します
 50
270.0
 41
0.7
 11
218.332792167165
 21
182.16066414984641
 31
0.0
 73
     3
  0
LINE
  5
305
  8
DATA
  6
CONTINUOUS
 62
     7
 10
251.43823273059999
 20
6.2754812600067282
 30
0.0
 11
65.438232730599978
 21
6.2754812600067282
 31
0.0
  0
LINE
  5
306
  8
DATA
  6
CONTINUOUS
 62
     7
 10
251.43823273059999
 20
-41.724518739991183
 30
0.0
 11
251.43823273059999
 21
6.2754812600067282
 31
0.0
  0
LINE
  5
307
  8
DATA
  6
CONTINUOUS
 62
     7
 10
65.438232730599978
 20
-41.724518739991183
 30
0.0
 11
251.43823273059999
 21
-41.724518739991183
 31
0.0
  0
LINE
  5
308
  8
DATA
  6
CONTINUOUS
 62
     7
 10
65.438232730599978
 20
6.2754812600067282
 30
0.0
 11
65.438232730599978
 21
-41.724518739991183
 31
0.0
  0
TEXT
  5
309
  8
DATA
 62
     7
 10
122.86984384920071
 20
-40.771355830520712
 30
0.0
 40
4.7779340277777766
  1
G
 41
0.7
 11
122.86984384920071
 21
-35.993421802742951
 31
0.0
 73
     3
  0
TEXT
  5
30A
  8
DATA
 62
     7
 10
156.99778143236219
 20
-40.778740961914501
 30
0.0
 40
4.3435763888888879
  1
B
 41
0.7
 11
156.99778143236219
 21
-36.435164573025617
 31
0.0
 73
     3
  0
TEXT
  5
30B
  8
DATA
 62
     7
 10
191.17579395670481
 20
-40.378740961914531
 30
0.0
 40
4.3435763888888879
  1
R
 41
0.7
 11
191.17579395670481
 21
-36.035164573025639
 31
0.0
 73
     3
  0
TEXT
  5
30C
  8
DATA
 62
     7
 10
107.592362796841
 20
0.7653364840378223
 30
0.0
 40
3.5834505208333329
  1
7.5m以下
 41
0.7
 11
107.592362796841
 21
4.3487870048711548
 31
0.0
 73
     3
  0
TEXT
  5
30D
  8
DATA
 62
     7
 10
109.0476522358676
 20
-7.2192431732034326
 30
0.0
 40
3.5834505208333329
  1
1：OFF
 41
0.7
 11
109.0476522358676
 21
-3.6357926523701001
 31
0.0
 73
     3
  0
TEXT
  5
30E
  8
DATA
 62
     7
 10
109.0476522358676
 20
-13.81924317320329
 30
0.0
 40
3.5834505208333329
  1
2：OFF
 41
0.7
 11
109.0476522358676
 21
-10.23579265236995
 31
0.0
 73
     3
  0
TEXT
  5
30F
  8
DATA
 62
     7
 10
109.0476522358676
 20
-20.419243173202972
 30
0.0
 40
3.5834505208333329
  1
3：OFF
 41
0.7
 11
109.0476522358676
 21
-16.83579265236963
 31
0.0
 73
     3
  0
TEXT
  5
310
  8
DATA
 62
     7
 10
109.0476522358676
 20
-27.019243173202661
 30
0.0
 40
3.5834505208333329
  1
4：OFF
 41
0.7
 11
109.0476522358676
 21
-23.435792652369319
 31
0.0
 73
     3
  0
TEXT
  5
311
  8
DATA
 62
     7
 10
131.06237766006919
 20
0.7653364840378223
 30
0.0
 40
3.5834505208333329
  1
7.5～30m
 41
0.7
 11
131.06237766006919
 21
4.3487870048711548
 31
0.0
 73
     3
  0
TEXT
  5
312
  8
DATA
 62
     7
 10
133.25355837972711
 20
-7.2192431732034326
 30
0.0
 40
3.5834505208333329
  1
1：ON
 41
0.7
 11
133.25355837972711
 21
-3.6357926523701001
 31
0.0
 73
     3
  0
TEXT
  5
313
  8
DATA
 62
     7
 10
133.25355837972711
 20
-13.81924317320329
 30
0.0
 40
3.5834505208333329
  1
2：OFF
 41
0.7
 11
133.25355837972711
 21
-10.23579265236995
 31
0.0
 73
     3
  0
TEXT
  5
314
  8
DATA
 62
     7
 10
133.25355837972711
 20
-20.419243173202972
 30
0.0
 40
3.5834505208333329
  1
3：OFF
 41
0.7
 11
133.25355837972711
 21
-16.83579265236963
 31
0.0
 73
     3
  0
TEXT
  5
315
  8
DATA
 62
     7
 10
133.25355837972711
 20
-27.019243173202661
 30
0.0
 40
3.5834505208333329
  1
4：OFF
 41
0.7
 11
133.25355837972711
 21
-23.435792652369319
 31
0.0
 73
     3
  0
TEXT
  5
316
  8
DATA
 62
     7
 10
155.5459822789125
 20
0.7653364840378223
 30
0.0
 40
3.5834505208333329
  1
30～60m
 41
0.7
 11
155.5459822789125
 21
4.3487870048711548
 31
0.0
 73
     3
  0
TEXT
  5
317
  8
DATA
 62
     7
 10
157.1634287033022
 20
-7.2192431732034326
 30
0.0
 40
3.5834505208333329
  1
1：OFF
 41
0.7
 11
157.1634287033022
 21
-3.6357926523701001
 31
0.0
 73
     3
  0
TEXT
  5
318
  8
DATA
 62
     7
 10
157.1634287033022
 20
-13.81924317320329
 30
0.0
 40
3.5834505208333329
  1
2：ON
 41
0.7
 11
157.1634287033022
 21
-10.23579265236995
 31
0.0
 73
     3
  0
TEXT
  5
319
  8
DATA
 62
     7
 10
157.1634287033022
 20
-20.419243173202972
 30
0.0
 40
3.5834505208333329
  1
3：OFF
 41
0.7
 11
157.1634287033022
 21
-16.83579265236963
 31
0.0
 73
     3
  0
TEXT
  5
31A
  8
DATA
 62
     7
 10
157.1634287033022
 20
-27.019243173202661
 30
0.0
 40
3.5834505208333329
  1
4：OFF
 41
0.7
 11
157.1634287033022
 21
-23.435792652369319
 31
0.0
 73
     3
  0
TEXT
  5
31B
  8
DATA
 62
     7
 10
179.74385405487999
 20
0.7653364840378223
 30
0.0
 40
3.5834505208333329
  1
60～90m
 41
0.7
 11
179.74385405487999
 21
4.3487870048711548
 31
0.0
 73
     3
  0
TEXT
  5
31C
  8
DATA
 62
     7
 10
181.21786690545269
 20
-7.2192431732034326
 30
0.0
 40
3.5834505208333329
  1
1：OFF
 41
0.7
 11
181.21786690545269
 21
-3.6357926523701001
 31
0.0
 73
     3
  0
TEXT
  5
31D
  8
DATA
 62
     7
 10
181.21786690545269
 20
-13.81924317320329
 30
0.0
 40
3.5834505208333329
  1
2：OFF
 41
0.7
 11
181.21786690545269
 21
-10.23579265236995
 31
0.0
 73
     3
  0
TEXT
  5
31E
  8
DATA
 62
     7
 10
181.21786690545269
 20
-20.419243173202972
 30
0.0
 40
3.5834505208333329
  1
3：ON
 41
0.7
 11
181.21786690545269
 21
-16.83579265236963
 31
0.0
 73
     3
  0
TEXT
  5
31F
  8
DATA
 62
     7
 10
181.21786690545269
 20
-27.019243173202661
 30
0.0
 40
3.5834505208333329
  1
4：OFF
 41
0.7
 11
181.21786690545269
 21
-23.435792652369319
 31
0.0
 73
     3
  0
TEXT
  5
320
  8
DATA
 62
     7
 10
203.8136125441259
 20
0.7653364840378223
 30
0.0
 40
3.5834505208333329
  1
90m以上
 41
0.7
 11
203.8136125441259
 21
4.3487870048711548
 31
0.0
 73
     3
  0
TEXT
  5
321
  8
DATA
 62
     7
 10
205.15269193370901
 20
-7.2192431732034326
 30
0.0
 40
3.5834505208333329
  1
1：OFF
 41
0.7
 11
205.15269193370901
 21
-3.6357926523701001
 31
0.0
 73
     3
  0
TEXT
  5
322
  8
DATA
 62
     7
 10
205.15269193370901
 20
-13.81924317320329
 30
0.0
 40
3.5834505208333329
  1
2：OFF
 41
0.7
 11
205.15269193370901
 21
-10.23579265236995
 31
0.0
 73
     3
  0
TEXT
  5
323
  8
DATA
 62
     7
 10
205.15269193370901
 20
-20.419243173202972
 30
0.0
 40
3.5834505208333329
  1
3：ON
 41
0.7
 11
205.15269193370901
 21
-16.83579265236963
 31
0.0
 73
     3
  0
TEXT
  5
324
  8
DATA
 62
     7
 10
205.15269193370901
 20
-27.019243173202661
 30
0.0
 40
3.5834505208333329
  1
4：OFF
 41
0.7
 11
205.15269193370901
 21
-23.435792652369319
 31
0.0
 73
     3
  0
TEXT
  5
325
  8
DATA
 62
     7
 10
119.4571538713129
 20
-33.642384925391632
 30
0.0
 40
3.5834505208333329
  1
DIPスイッチは全て同じに設定します
 41
0.7
 11
119.4571538713129
 21
-30.0589344045583
 31
0.0
 73
     3
  0
TEXT
  5
326
  8
DATA
 62
     7
 10
112.8435233558631
 20
-54.759062094091433
 30
0.0
 40
5.4294704861111107
  1
デップスイッチ設定表拡大図
 41
0.7
 11
112.8435233558631
 21
-49.329591607980319
 31
0.0
 73
     3
  0
LINE
  5
327
  8
DATA
  6
CONTINUOUS
 62
     7
 10
112.4999999998151
 20
-56.250000000355357
 30
0.0
 11
206.24999999981509
 21
-56.250000000355357
 31
0.0
  0
LINE
  5
328
  8
DATA
  6
CONTINUOUS
 62
     7
 10
157.44111650709721
 20
60.494054723650322
 30
0.0
 11
207.84111650709761
 21
60.494054723650322
 31
0.0
  0
LINE
  5
329
  8
DATA
  6
CONTINUOUS
 62
     7
 10
157.44111650709721
 20
30.254054723650199
 30
0.0
 11
207.84111650709761
 21
30.254054723650199
 31
0.0
  0
LINE
  5
32A
  8
DATA
  6
CONTINUOUS
 62
     7
 10
157.44111650709721
 20
30.254054723650199
 30
0.0
 11
157.44111650709721
 21
60.452901706314172
 31
0.0
  0
LINE
  5
32B
  8
DATA
  6
CONTINUOUS
 62
     7
 10
207.84111650709761
 20
30.254054723650199
 30
0.0
 11
207.84111650709761
 21
60.494054723650322
 31
0.0
  0
LINE
  5
32C
  8
DATA
  6
CONTINUOUS
 62
     7
 10
185.56611650709741
 20
39.254054723650199
 30
0.0
 11
185.56611650709741
 21
50.50405472365032
 31
0.0
  0
LINE
  5
32D
  8
DATA
  6
CONTINUOUS
 62
     7
 10
191.19111650709741
 20
39.254054723650199
 30
0.0
 11
185.56611650709741
 21
39.254054723650199
 31
0.0
  0
LINE
  5
32E
  8
DATA
  6
CONTINUOUS
 62
     7
 10
191.19111650709741
 20
50.50405472365032
 30
0.0
 11
191.19111650709741
 21
39.254054723650199
 31
0.0
  0
LINE
  5
32F
  8
DATA
  6
CONTINUOUS
 62
     7
 10
185.56611650709741
 20
50.50405472365032
 30
0.0
 11
191.19111650709741
 21
50.50405472365032
 31
0.0
  0
LINE
  5
330
  8
DATA
  6
CONTINUOUS
 62
     7
 10
174.09111650709741
 20
39.254054723650199
 30
0.0
 11
174.09111650709741
 21
50.50405472365032
 31
0.0
  0
LINE
  5
331
  8
DATA
  6
CONTINUOUS
 62
     7
 10
179.71611650709741
 20
39.254054723650199
 30
0.0
 11
174.09111650709741
 21
39.254054723650199
 31
0.0
  0
LINE
  5
332
  8
DATA
  6
CONTINUOUS
 62
     7
 10
179.71611650709741
 20
50.50405472365032
 30
0.0
 11
179.71611650709741
 21
39.254054723650199
 31
0.0
  0
LINE
  5
333
  8
DATA
  6
CONTINUOUS
 62
     7
 10
174.09111650709741
 20
50.50405472365032
 30
0.0
 11
179.71611650709741
 21
50.50405472365032
 31
0.0
  0
LINE
  5
334
  8
DATA
  6
CONTINUOUS
 62
     7
 10
197.0411165070974
 20
39.254054723650199
 30
0.0
 11
197.0411165070974
 21
50.50405472365032
 31
0.0
  0
LINE
  5
335
  8
DATA
  6
CONTINUOUS
 62
     7
 10
202.6661165070974
 20
39.254054723650199
 30
0.0
 11
197.0411165070974
 21
39.254054723650199
 31
0.0
  0
LINE
  5
336
  8
DATA
  6
CONTINUOUS
 62
     7
 10
202.6661165070974
 20
50.50405472365032
 30
0.0
 11
202.6661165070974
 21
39.254054723650199
 31
0.0
  0
LINE
  5
337
  8
DATA
  6
CONTINUOUS
 62
     7
 10
197.0411165070974
 20
50.50405472365032
 30
0.0
 11
202.6661165070974
 21
50.50405472365032
 31
0.0
  0
LINE
  5
338
  8
DATA
  6
CONTINUOUS
 62
     7
 10
162.6161165070973
 20
39.254054723650199
 30
0.0
 11
162.6161165070973
 21
50.50405472365032
 31
0.0
  0
LINE
  5
339
  8
DATA
  6
CONTINUOUS
 62
     7
 10
168.2411165070973
 20
39.254054723650199
 30
0.0
 11
162.6161165070973
 21
39.254054723650199
 31
0.0
  0
LINE
  5
33A
  8
DATA
  6
CONTINUOUS
 62
     7
 10
168.2411165070973
 20
50.50405472365032
 30
0.0
 11
168.2411165070973
 21
39.254054723650199
 31
0.0
  0
LINE
  5
33B
  8
DATA
  6
CONTINUOUS
 62
     7
 10
162.6161165070973
 20
50.50405472365032
 30
0.0
 11
168.2411165070973
 21
50.50405472365032
 31
0.0
  0
TEXT
  5
33C
  8
DATA
 62
     7
 10
164.23047161486929
 20
32.668540945265228
 30
0.0
 40
3.664892578124999
  1
1
 41
0.7
 11
164.23047161486929
 21
36.333433523390227
 31
0.0
 73
     3
  0
TEXT
  5
33D
  8
DATA
 62
     7
 10
175.7054716148694
 20
32.668540945265228
 30
0.0
 40
3.664892578124999
  1
2
 41
0.7
 11
175.7054716148694
 21
36.333433523390227
 31
0.0
 73
     3
  0
TEXT
  5
33E
  8
DATA
 62
     7
 10
187.18047161486959
 20
32.668540945265228
 30
0.0
 40
3.664892578124999
  1
3
 41
0.7
 11
187.18047161486959
 21
36.333433523390227
 31
0.0
 73
     3
  0
TEXT
  5
33F
  8
DATA
 62
     7
 10
198.65547161486961
 20
32.668540945265228
 30
0.0
 40
3.664892578124999
  1
4
 41
0.7
 11
198.65547161486961
 21
36.333433523390227
 31
0.0
 73
     3
  0
TEXT
  5
340
  8
DATA
 62
     7
 10
174.43712405092251
 20
53.469204519734781
 30
0.0
 40
3.664892578124999
  1
ON  RSN
 41
0.7
 11
174.43712405092251
 21
57.13409709785978
 31
0.0
 73
     3
  0
LINE
  5
341
  8
DATA
  6
CONTINUOUS
 62
     7
 10
162.6161165070973
 20
44.879054723650313
 30
0.0
 11
168.2411165070973
 21
44.879054723650313
 31
0.0
  0
LINE
  5
342
  8
DATA
  6
CONTINUOUS
 62
     7
 10
174.09111650709741
 20
44.879054723650313
 30
0.0
 11
179.71611650709741
 21
44.879054723650313
 31
0.0
  0
LINE
  5
343
  8
DATA
  6
CONTINUOUS
 62
     7
 10
185.56611650709741
 20
44.879054723650313
 30
0.0
 11
191.19111650709741
 21
44.879054723650313
 31
0.0
  0
LINE
  5
344
  8
DATA
  6
CONTINUOUS
 62
     7
 10
197.0411165070974
 20
44.879054723650313
 30
0.0
 11
202.6661165070974
 21
44.879054723650313
 31
0.0
  0
TEXT
  5
345
  8
DATA
 62
     7
 10
147.58755132777981
 20
21.172621291348818
 30
0.0
 40
5.4294704861111107
  1
デップスイッチ拡大図
 41
0.7
 11
147.58755132777981
 21
26.602091777459929
 31
0.0
 73
     3
  0
LINE
  5
346
  8
DATA
  6
CONTINUOUS
 62
     7
 10
143.749999999815
 20
18.74999999964464
 30
0.0
 11
224.99999999981509
 21
18.74999999964464
 31
0.0
  0
CIRCLE
  5
347
  8
DATA
  6
CONTINUOUS
 62
     7
 10
173.8031166585555
 20
187.9246479633174
 30
0.0
 40
2.75
  0
LINE
  5
348
  8
DATA
  6
CONTINUOUS
 62
     7
 10
175.1784686948827
 20
186.54929592699031
 30
0.0
 11
172.4277646222283
 21
189.2999999996446
 31
0.0
  0
LINE
  5
349
  8
DATA
  6
CONTINUOUS
 62
     7
 10
172.4277646222283
 20
186.54929592699031
 30
0.0
 11
175.1784686948827
 21
189.2999999996446
 31
0.0
  0
CIRCLE
  5
34A
  8
DATA
  6
CONTINUOUS
 62
     7
 10
173.8031166585555
 20
136.72464796331749
 30
0.0
 40
2.75
  0
LINE
  5
34B
  8
DATA
  6
CONTINUOUS
 62
     7
 10
175.1784686948827
 20
135.34929592699029
 30
0.0
 11
172.4277646222283
 21
138.09999999964461
 31
0.0
  0
LINE
  5
34C
  8
DATA
  6
CONTINUOUS
 62
     7
 10
172.4277646222283
 20
135.34929592699029
 30
0.0
 11
175.1784686948827
 21
138.09999999964461
 31
0.0
  0
CIRCLE
  5
34D
  8
DATA
  6
CONTINUOUS
 62
     7
 10
198.7717609414257
 20
187.9246479633174
 30
0.0
 40
2.75
  0
LINE
  5
34E
  8
DATA
  6
CONTINUOUS
 62
     7
 10
197.3964089050985
 20
186.54929592699031
 30
0.0
 11
200.1471129777529
 21
189.2999999996446
 31
0.0
  0
LINE
  5
34F
  8
DATA
  6
CONTINUOUS
 62
     7
 10
200.1471129777529
 20
186.54929592699031
 30
0.0
 11
197.3964089050985
 21
189.2999999996446
 31
0.0
  0
CIRCLE
  5
350
  8
DATA
  6
CONTINUOUS
 62
     7
 10
198.7717609414257
 20
136.72464796331749
 30
0.0
 40
2.75
  0
LINE
  5
351
  8
DATA
  6
CONTINUOUS
 62
     7
 10
197.3964089050985
 20
135.34929592699029
 30
0.0
 11
200.1471129777529
 21
138.09999999964461
 31
0.0
  0
LINE
  5
352
  8
DATA
  6
CONTINUOUS
 62
     7
 10
200.1471129777529
 20
135.34929592699029
 30
0.0
 11
197.3964089050985
 21
138.09999999964461
 31
0.0
  0
ENDSEC
  0
EOF
